Lejos

El Ultimo Ke Zierre

Genero: Pop

Tablatura (Ver letra)

D           Bm
Hoy soñaré, mientras me elevo
D Bm
a donde voy, se ve pequeño
D Bm
pero es mejor estar más lejos
D Bm
la realidad es un mal trago

F# G D A
tan triste y tan amargo
F# G A
tengo que aligerarlo
F# G D A
mi vida es un letargo
F# G A
que espera algún milagro.


D Bm
Navegaré, inadaptado

D Bm
en un motín de renegados

D Bm
bebiendo el ron del fracasado

D Bm
aliviaré, todo mal trago

F# G D A
tan triste y tan amargo
F# G A
tengo que aligerarlo
F# G D A
mi vida es un letargo
F# G A
que espera algún milagro.

D F#
Que me mande muy lejos! de las palabras, lejos!
B G
de las ideas, lejos! de vencido y vencedor
D F#
de las mentiras, lejos! de la rutina, lejos!
B G
de manifiestos, lejos! de cordero y orador.

|---------------------------|
|---------------------------|
|---------------------------|
|---------------------------| X2
|---4----2-----4-5-5/7-5-4--|
|-2---2-3--3-5--------------|

D Bm
Tal vez fui un mar sin calaveros
D Bm
Tal vez fui un sol sin revolución
D Bm
Tal vez una nación sin nacionalidad
D F#
Tal vez quizá un amor sin condiciones,
A G A A A A
busco razones una escalera de corazones


D F#
Que me mande muy lejos! de las palabras, lejos!
B G
de las ideas, lejos! de vencido y vencedor
D F#
de las mentiras, lejos! de la rutina, lejos!
B G
de manifiestos, lejos! de cordero y orador.

D F#
Tal vez fui un mar, sin calaveros
B G
Tal vez fui un sol sin revolución
D F#
Tal vez una nación sin nacionalidad
B G
Tal vez quizá un amor sin condiciones,

|------------------------------------------------------|
|------------------------------------------------------|
|------------------------------------------------------|
|------------------------------------------------------|
|---4----2-----4-5-5/7-5-4----4----2-----4-5-5/7-5-4-5-|
|-2---2-3--3-5--------------2---2-3--3-5---------------|


Cualquier duda o wea a edorockandroll@hotmail.com