La Burbuja

El Ultimo Ke Zierre

Genero: Pop

Tablatura

Solillo del principio con estos acordes: C#, E, B

-------------------------------------------------
--5---5---5---5--------5-------------------------
----6---6---6---8--6-8---6-----------------------
-------------------------------------------------
------------------------------------------------- x3
-------------------------------------------------

-----------------------------------------------
--5---5----5-----------------------------------
----6---6-----8-6-4----------------------------
-----------------------------------------------
----------------------------------------------- x1
-----------------------------------------------

C# E B
Pinté para los dos sobre el espejo
C# E B
Pinté para los dos
C# E B
Tu echabas para dos ron y más ron
C# E B
Tu echabas para dosç
C# E B
Liabas y liabas sin parar
C# E B
no tienes freno
C# E B
Te vuelves a pintar para los dos
C# E B
Sobre el espejo, no tienes freno


G#
Y así llevamos horas
E G#
Dentro de esta burbuja

De vicio y de espesura
C# E B C# E B C# E B C#
Perdidos Perdidos Perdidos Perdidos
B B B B B B B
En los más atroz, en lo más atroz...y divertido.


INTRO DE NUEVO
Y esto iwal ke el princpio

Pecados para dos frente al espejo
Pecados para dos
Sudando hasta morir frente al espejo
Sudando hasta morir, no tienes freno

Y así llevamos horas
Dentro de esta burbuja
De sexo y desmesura

C# A E B
Perdidos, perdidos en lo más atroz y divertido x2

Y así llevamos horas
Dentro de esta burbuja
La realidad está fuera

Puente al solo Y en la ultima hace un ascedente parecido a esto
--------4---------- ------------4---5-
--5--7----7--5--X10 ---5---7--5---7---
------------------- -6---8------------
----------------- ------------------
-----------------
-----------------


Perdidos, perdidos en lo más atroz y divertido


Fin: G# E G# C#

By Mith