Está Podrido Todo

El Ultimo Ke Zierre

Genero: Pop

Tablatura

INTRO: F E A x4

E||------------------------|-------------------|------------------------|
B||---------------------3--|-----3-------------|---------------------6--|
G||------------------------|----------2--------|------------------------|
D||--3----3--3--2----2-----|-------------------|--3----3--3--2----2-----|
A||--3----3--3--2----2-----|-------------------|--3----3--3--2----2-----|
E||--1----1--1--0----0-----|-------------------|--1----1--1--0----0-----|


------------------------|------------------------|--------------|
-----5----3--5--3-------|------------------------|--------------|
-------------------5----|------------------0--2--|--5--2--------|
------------------------|--3----3--3--2----------|--------------|
------------------------|--3----3--3--2----------|--------------|
------------------------|--1----1--1--0----------|--------------|


------------------------|-----------|-----------|-----------|
------------------3--5--|-----------|-----------|-----------|
------------------------|-----------|-----------|-----------|
--3----3--3--2----------|-----------|-----------|-----------|
--3----3--3--2----------|-----------|-----------|-----------|
--1----1--1--0----------|-----------|-----------|-----------|

F A
Se me pone mala sangre al verla por la calle
sofocada y como puede, con las piernas hinchadas,
anda fregando suelos la madre del chiquillo,
al que encerrasteis ayer y sisa a su marido.
Todito pa su niño que tenéis en presidio
por media cuarta de hachís.
( F E A x4 )

F E A
Me da vergüenza ajena,
encerrando a un chiquillo
pensáis que hacéis justicia.

( A )

E A E A A E* A E*
pues yo me fumo de todo, de todo, de todo.
Y me tiro de todo, de todo, de todo.
Y que se enteren todos, todos, todos.
Porque hago igual que todos, que todos, que todos.
E A
Y unos estamos fuera, fuera, fuera.
Y otros están dentro, dentro, dentro.
Y unos lo ganan todo, todo, todo.
Y otros lo pierden todo, todo, todo.
Legalizarlo todo, todo, todo.
Y soltarlos a todos, todos, todos.

F E A
Y hay que decirlo todo
pa que se enteren todos,
que está podido todo.

SOLOS ( BASE E A E A A E A E )

-----------------------|------------------------|----------------------|
-----------------------|------------------------|----------------------|
------------------9----|--9--9----9--10----9----|--7----------------7--|
-----------------------|------------------------|-----9----------------|
-----------------------|------------------------|----------------------|
-----------------------|------------------------|----------------------|

----------------------|----------------------|-------------------------|
----------------------|----------------------|-------------------------|
-------------------9--|-----9--------7-------|-----9--9--9--9--10----9-|
--9-------------------|-------------------9--|-------------------------|
----------------------|----------------------|-------------------------|
----------------------|----------------------|-------------------------|

----------------------|----------------------|----------------------|
----------------------|----------------------|----------------------|
--7----------------7--|-------------------9--|-----9--------7-------|
-----9----------------|--9-------------------|-------------------9--|
----------------------|----------------------|----------------------|
----------------------|----------------------|----------------------|

--------------------------|----------------------|----------------------|
--------------------------|----------------------|----------------------|
-----9--9--9--9--10----9--|-------------------9--|-----9--------7-------|
--------------------------|--9-------------------|-------------------9--|
--------------------------|----------------------|----------------------|
--------------------------|----------------------|----------------------|

--------------------------|----------------------------|
-----------------------8--|--10--8---------------------|
-----9--9--9--9--10-------|----------------------------|
--------------------------|----------------------------|
--------------------------|----------------------------|
--------------------------|----------------------------|

-------------------------------|--------------------|
------12-----12--12--13----12--|--10----------------|
-------------------------------|--------------------|
-------------------------------|--------------------|
-------------------------------|--------------------|
-------------------------------|--------------------|

---------------------------|-----------------------|
---------------------------|-----------------------|
-----9--9--9--9--10----12--|--10--9----------------|
---------------------------|-----------------------|
---------------------------|-----------------------|
---------------------------|-----------------------|

----------------------------|-----------------------||
----------------------------|-----------------------||
-----10--9--7---------------|------------------9----||
---------------10--9----10--|--7--------------------||
----------------------------|-----------------------||
----------------------------|-----------------------||