Enganchados

El Ultimo Ke Zierre

Genero: Pop

Tablatura

 INTRO

F C D C F

E|-8-8-8-8-8-6-------8----8-10-8-------------------------
B|-------------10-8--------------8--8-10-11-10-8-6/8/6-6-
G|-------------------------------------------------------
D|-------------------------------------------------------
A|-------------------------------------------------------
E|-------------------------------------------------------

C D C F

E|---8-8--10--8------------------------------------------
B|---------------8--10--11---------------10--8/6-5/3-3-1-
G|----------------------------7-9-10-12------------------
D|-------------------------------------------------------
A|-------------------------------------------------------
E|-------------------------------------------------------


(la última nota se deja sonando)
(los acordes de ahora se arpegian en limpio,
significa que se tocan las notas que estas marcando del acorde)

F C D
Tu sabes que mientes cuando vas

C F
tu sabes que mientes cuando vuelves

C D C F
que siembre te asusta la verdad es duro verse sin valor

(en el último fa entra la otra guitarra con distorsión en p.m
y el resto de instrumentos)

C D C F
para de una vez decir que no que no que no que no

C D C F
Busca solo una razón verás seguro tienes mil



ESTRIBILLO

(ahora se toca normal en distorsión)

F C D C F
para de una vez decir que no que no que no que no X2



F C D C F

E|-8-8-8-8-8-6-------8----8-10-8-------------------------
B|-------------10-8--------------8--8-10-11-10-8-6/8/6-6-
G|-------------------------------------------------------
D|-------------------------------------------------------
A|-------------------------------------------------------
E|-------------------------------------------------------

C D C F

E|---8-8--10--8-------------------------------------------
B|---------------8--10--11---------------10--8/6/-5/3-3-1-
G|----------------------------7-9-10-12-------------------
D|--------------------------------------------------------
A|--------------------------------------------------------
E|--------------------------------------------------------



(la última nota se deja sonando)
(1 guitarra se arpegia en limpio, la otra p.m en distorsión)

F C D
Tu sabes que miento cuando voy

C F
tu sabes que miento cuando vuelvo

C D C F
que siempre me asusta la verdad es duro verse sin valor

C D C F
para de una vez decir que no que no que no que no



ESTRIBILLO

(ahora se toca normal en distorsión)

F C D
Y así aguantamos este infierno

C F
y así aguantamos este infierno

C D
y así aguantamos este infierno

C
y así aguantamos...


(se corea "tu y yo enganchados")
(en la 5º empieza el coro de "y asi aguantamos este infierno")
(en la 7º el punteo)

F C
Tu y yo enganchados x10

E|-------------
B|-13-11-10-11-
G|-------------
D|-------------
A|-------------
E|-------------


http://myspace.com/losttimevlc