En Mi Cabeza

El Ultimo Ke Zierre

Genero: Pop

Tablatura

Hola les traigo este tema corregido

B E
|---------------------------------------------------|
|---------------------------------------------------|
|-------------------------------2-1--------2-1-2-4--|
|------2-1-------2-1-2-4---2---2------2---2---------|X2
|-2---2-----2---2-----------------------------------|
|---------------------------------------------------|


B F# B F#
|--------------------------------------------------|
|--------------------------------------------------|
|--------------------------------------------------|
|--------------------------------------------------|
|-2---------------------2---2----------------2-----|
|--------------------2---------------------2-------|
Vienes a robarme el alma para meterla en un frasco
|--------------------------------------------------|
|--------------------------------------------------|
|--------------------------------------------------|
|-------2------------2----------------------1-2-4--|
|-------2------------2------------2------2---------|
|-------0------------0-----------------2-----------|
y arrojarla, y arrojarla al barranco.


B
Caminando las aceras sin rumbo, vaciando la cartera
E B E8 F#8(Ojo con esto
De todo el mundo que se cruce y se despiste. que se toca rapido)



B F# B F#
|----------------------------------------------------------|
|----------------------------------------------------------|
|----------------------------------------------------------|
|----------------------------------------------------------|
|-2------------------2/7-6---2-------------------2/7-6/7/9-|
|------------------2---------------------------2-----------|
El sabor de la cordura nunca habíamos probado
E B
y nos fuimos cada uno por su lado,

B
Tu a tu vida yo a la mía. No me traigas pesadillas,
E
si aun me duele es por ti, que aun dependes
B
de la reina de las drogas.



F# G G#
Y cuando te acerques no me entres por el rabo
B
que me duele, que aun la tengo en mi cabeza


F# G G#
no tengo temblores ni ningún dolor,
B
pero aun esta en mi cabeza.

B E
|-----------------------------------------------------|
|-----------------------------------------------------|
|-------------------------------1-4-1--------1-4-1----|X2
|-----1-4-1--------1-4-1----2-4-------4--2-4-------4--|
|-2-4-------4--2-4-------4----------------------------|
|-----------------------------------------------------|

Y ahora vienes,


B
vienes a robarme el alma para meterla en un frasco
E B
y arrojarla, y arrojarla al barranco.

B
Tu a tu casa, yo a la mía, que la nuestra hemos quemado,

sobre el fuego en la cuchara
E B
o corriéndola o corriéndola entre plata.



F# G G#
Y cuando te acerques no me entres por el rabo
B
que me duele, que aun la tengo en mi cabeza


F# G G#
no tengo temblores ni ningún dolor,
B
pero aun esta en mi cabeza.

B E
|---------------------------------------------------|
|---------------------------------------------------|
|-------------------------------2-1--------2-1-2-4--|
|------2-1-------2-1-2-4---2---2------2---2---------|X2
|-2---2-----2---2-----------------------------------|
|---------------------------------------------------|

|---------------------------|
|---------------------------|
|---------------------------|Fin
|-----------2-1-2-4-4-------|
|-2------2------------------|
|------2--------------------|


Alguna wea que no entiendan me contactan al correo
edorockandroll@hotmail.com

Saludos