En La Máquina

El Ultimo Ke Zierre

Genero: Pop

Tablatura

intro:  G#-Em-B-F# (x2)

G# Em G# Em
Es tan fácil no escuchar el llanto

G# Em G# Em
cuando recuerda nuestras miserias.

G# Em G# Em
Es tan fácil no llorar la muerte

G# Em G# Em
cuando es muerte ajena y es justificable.

coro: G# Em B F#
Pero mi culpa es la de todos,

G# Em B F#
dejar pasar como los muertos.

G# Em
Sal de la maquina,

B F# G# Em
escapa al nicho de quien no sabe,

B F#
escribe tu epitafio.


G#-Em


Es tan fácil no sentir la culpa

siendo en la maquina solo una pieza más.

Es tan fácil entregar mi voto

y con ello mi responsabilidad.


coro



coro ultimo : Sal de la maquina,

Em
sal de la maquina


B F#
tu epitafio ya esta escrito.


G# Em
Sin pena ni gloria, solo una pieza más,

B F#
integrada en la maquina

---------------------------------
-9(x6)---------------------------
----------------------9----8-----
---------------------------------
---------------------------------
---------------------------------



----------------------------------
--9(x6)---------------------------
----------------------9-----8---6-
----------------------------------
----------------------------------
----------------------------------


G# Em G# Em
nació, creció, se reprodujo y murió.


G# Em
Sin pena ni gloria...



saludos a mi tia nathalie
y a mis amigos
simon y naxo
salud y anarquia