Cara Al Lavabo

El Ultimo Ke Zierre

Genero:

Tablatura

Base intro base: A E C#m D E

punteito intro:

e:---------------------------------------------------
B:--------------------------------12-10-9-10-9-------
G:--9b--9-9--------------9b--9-9---------------7-9b--
D:-----------11-9----9-------------------------------
A:----------------12---------------------------------
E:---------------------------------------------------



A
Porque me insultas,
E
solo soy un animal
C#m D E
presa de sus instintos,

A
que no puede evitar,
E
a veces contemplar,
C#m D E
algún que otro trasero.

(SIGUEN CON LOS MISMOS AKORDES LOS VERSOS)

No quiero ser juzgado
por ser un ser humano,
no quiero ser marcado.

Somos borregos
en un mismo corral,
yo no soy tu enemigo,

pero sincero te voy a confesar:
solo hay un gesto,
Que no puedo evitar.

PUNTEITO OTRA VEZ:

e:---------------------------------------------------
B:--------------------------------12-10-9-10-9-------
G:--9b--9-9--------------9b--9-9---------------7-9b--
D:-----------11-9----9-------------------------------
A:----------------12---------------------------------
E:---------------------------------------------------

e:-----------------------------------------------------------------------
B:--------------------------------12-10-9-10-9--12-10-9-10--12-10-9--/12-
G:--9b--9-9--------------9b--9-9-----------------------------------------
D:-----------11-9----9---------------------------------------------------
A:----------------12-----------------------------------------------------
E:-----------------------------------------------------------------------

A X4

A
Con solo ver sus ojos
E
se me puede enderezar,
de niño me dijeron
A
que era algo muy natural,

A
si el gesto te molesta
E
tú no lo vas a notar,
que aunque ya mayorcito
A
me la puedo machacar.

(PRIMERO CON LA BATERIA SOLA)

Cara el lavabo me la hago,
cuando se mustia me la lavo.
Y no me siento desgraciado,
porque esta noche no he mojado

A E D E
Cara al lavabo me la hago,
A E D E
cuando se mustia me la lavo.
A E D E
Y no me siento desgraciado,
A E D E
porque esta noche no he mojado

FINAL : A