Canción Del Gitano Apaleado

El Ultimo Ke Zierre

Genero: Pop

Tablatura

Intro F A C A X2

F A F
Veinticuatro bofetadas veinticinco bofetadas después mi
A INTRO
Madre a la noche me pondrá un papel de plata

Me pondrá un papel de plata

Punteo e intro
F A F
Hay mandor de los civiles que estas arriba en tus alas no
A intro
Habrá pañuelos de ceda para limpiarme la cara

Para limpiarme la cara

Punteo e intro

F A
Guardia civil guardia civil caminera (la verdad no se lo que dice)
C G A C G A
Denme unos sorbitos de agua agua con peces y barcos
F A
Guardia civil guardia civil caminera
C G A C G A
Denme unos sorbitos de agua agua con peces y barcos agua

Solo (2da GUITARRA Y BAJO HACEN EL INTRO)

INTRO (con P.M)

Agua agua agua agua

Coro


PUNTEO
X3
1------------------/------------
2------------------/----------
3----------5-------/-----------
4---5h77e-----7-5 -/--5h7e-5s7-5
5-----------------7/-----------
6------------------/--------------


Solo

1---------------------/---------------------------
2---------------------/------------------------
3---------------------/--------------------------
4--17-17s19-19-19-17--/-------------------------
5------------------ 19/ -15-17-17s19-19---19-17p15--12
6---------------------/----------------------------


1---------------------------------------------------
2---------------------------------------------------
3------------------------------------------------------
4--------17-17s19-19---19-17----------------------------
5----19-----------------------18---15-17s19-19-----19-17p15--12
6---------------------------------------------------------