Calma Quisiera

El Ultimo Ke Zierre

Genero: Pop

Tablatura (Ver letra)

Bueno esta cancion abre el disco La Rutina Del Miedo

Intro

Am G F Am G F
|----------------------------------------|
|----------------------------------------|
|---5---4--2-4---2----5---4--2-4---2-----|
|----------------------------------------|
|-0-----------------0--------------------|
|----------------------------------------|

Am G F Am G F
|--------------------------------------|
|--------------------------------------|
|---5---4--2-4---2----5---7-5-4--5-4-2-|
|--------------------------------------|
|-0-----------------0------------------|
|--------------------------------------|

Ahora con overdrive

RIFF BASE
|---------------------------------| Como sabrán este es el riff
|---------------------------------| base de la canción, el bend
|---------------------------------| del DO deben hacerlo hacia abajo
|-2--2-2-2-------2--2-2-2---------| para que salga mas cómodo.
|-0--0-0-0-3b(4)-0--0-0-0-5-5-5-5-|
|-------------------------3-3-3-3-|

A RIFF
Me da lo mismo a estas alturas que bandera sea la mía
A RIFF
me da lo mismo quien gobierne se jodera mi vida
A RIFF
ya se que suena pretencioso pero siento algo asqueroso
A F
veo el cinismo en las miradas de esos que nos piden calma

G E RIFF sin hacer el SOL
calma tu padre tengo casa que pagar tengo hijos que criar

F G E RIFF
siiiii calma a tu padre tengo miedo
F G E RIFF
siii si calma quisiera


RIFF sin hacer el SOL
Es bien sabido que ha subido que siempre paguen los mismos
C D E D C
es bien sabido
RIFF sin hacer el SOL
tomadlo todo mi dinero, mi salud, mis libertades
C D E D C
tomadlo todo

F G E
siii calma a tu padre

RIFF sin hacer el SOL
tengo ganas de marchar de largarme sin pagar

F G E A
siii calma a tu padre tengo mierda

F G E RIFF
siii si calma quisiera


me da lo mismo a estas alturas que bandera sea la mia