Ay, Carmela!

El Ultimo Ke Zierre

Genero: Pop

Tablatura

La canción empieza con batera y la letra solo, hasta ke
llega un momento en el ke hace asin...

E||-------|--------------------------------------------||
B||-------|--------------------------------------------||
G||-------|--7---------------------7-------------------||
D||--7-7--|--7-----------7---------7-----------7-------||
A||--7-7--|--5-4-5-7-5-4-7---------5-4-5-7-5-4-7-------||
E||--5-5--|--------------5.....----------------5.....--||


E||------------------------------------------------------------||
B||------------------------------------------------------------||
G||--7----------------------------7----------------------------|| Guit 1
D||--7-----------------7----------7-----------------7----------||
A||--5--4--5--7--5--4--7----------5--4--5--7--5--4--7----------||
E||--------------------5.....-----------------------5.....-----||

E||--10-10-9-10-12-10-9-----------10-10-9-10-12-10-9-----------||
B||---------------------10101010---------------------10101010--||
G||------------------------------------------------------------|| Guit 2
D||------------------------------------------------------------||
A||------------------------------------------------------------||
E||------------------------------------------------------------||


E||----------------------------------------||
B||----------------------------------------||
G||--10--------------9---------7-----6-9---|| Guit 1
D||--10--------------9---------7-----6-9---||
A||---8--------------7---------5-----4-7---||
E||----------------------------------------||

E||--13-13-13-13-12--12-12-10--10-10-9-12--||
B||----------------------------------------||
G||----------------------------------------|| Guit 2
D||----------------------------------------||
A||----------------------------------------||
E||----------------------------------------||


E||----------------------------------------||
B||----------------------------------------||
G||--10----------------9--------7----6-----|| Guit 1
D||--10----------------9--------7----6-7---||
A||---8----------------7--------5----4-7---||
E||------------------------------------5---||

E||--13-13-13-13-12--12-12-10--10-10-9-----||
B||------------------------------------10--||
G||----------------------------------------|| Guit 2
D||----------------------------------------||
A||----------------------------------------||
E||----------------------------------------||


Y luego con estos mismos acordes para el resto de estrofas,
eliminando el punteillo en D, usease:

D A
Luchamos contra los curas
D A
Luchamos contra los curas
F6 E6
Legionarios y fascistas
D C#E6
Ay, Carmela!! Ay, Carmela!!
F6 E6
Legionarios y fascistas
D C#A
Ay, Carmela!! Ay, Carmela!!

Y eso es todo, aunke no me he molestado en escuchar la
canción a ver si tengo fallos, pero la verdad es ke me
suena bastante bien, creo yo...


Lo ke sea a nachopua@hotmail.com