Amigo Imaginario

El Ultimo Ke Zierre

Genero: Pop

Tablatura

La canción empieza con la batería, seguida de este punteo:

e|------------|---------------------------|---------------|
B|-------8----|-10^--10--10--10--9&7------|---------------|
G|-7--9-----9-|-----------------------9&7-|--riff 1 (x3)--|
D|------------|---------------------------|---------------|
A|------------|---------------------------|---------------|
E|------------|---------------------------|---------------|
| riff 1 (x3)|


e|----------------|
B|-8--10--8^------|
G|------------9---| Mientras suena los riffs 1, se
D|----------------| tocan los acordes B5 G5 A5
A|----------------|
E|----------------|


E5 C5
Tiene un amigo imaginario
A5
Que le pide que asesine al vecindario
E5 C5
Y no le deja vivir
A5
Clavando una obsesión en su cabeza



E5 C5
Y la emprende, sin prisas
A5
Desde el primero hacia arriba
E5 C5
Tranquilo le cuenta
A5
Que la muerte es muy zalamera



(Ahora se repite todo el punteo del principio)


E5 C5 A5
La dura jornada de trabajo y la hemoglobina dejan agotado
E5 C5 A5
Descansa tras la matanza...
E5 C5 A5
Sirenas, ya llegan... alguien ha debido llamar a la pasma
E5 C5 A5
Y aquel plantado con su amigo imaginario.


|Estos dos
|acordes están
C5 D5 riff 2 [E5 E5 E5 E5]-->|indicados al
Lo llama, lo llama... |final de la
C5 A5 riff 2 |tablatura
¿Dónde está lo prometido?
C5 D5 riff 2
Para un poco y se da cuenta
C5 A5 B5
Que lo prometido es dejarlo bien jodido.



Solo: [E5 G5 A5] x4 [C5 D5 riff 2] x3 C5 A5 B5



E5 C5
Tiene un amigo imaginario
A5
Que le pide que asesine al vecindario
E5 C5
Y no le deja vivir
A5
Clavando una obsesión en su cabeza



E5 C5 A5
Lo llama, lo llama...
E5 C5 A5
¿Dónde está lo prometido?




Por último se vuelve a tocar otra vez el punteo del principio,
pero esta vez con algunos cambios (aunque los acordes que suenan
de fondo siguen siendo los mismos):



e|------------|---------------------------|----------------
B|------------|-10^--10--10--10--9&7------|----------------
G|-riff 1(x3)-|-----------------------9&7-|--riff 1 (x3)---
D|------------|---------------------------|----------------
A|------------|---------------------------|----------------
E|------------|---------------------------|----------------


e|------------||-----------|------------|------------------
B|-8--10^--10-||------8----|-8-----8----|------8-----------
G|------------||-7&9-----9-|----9-----9-|-7&9-----9--------
D|------------||-----------|------------|------------------
A|------------||-----------|------------|------------------
E|------------||-----------|------------|------------------
||- - x3- - -| |
| |
|- - - - - - x2 - - - - - |

Y ya está!


Acordes e5 y E5:

e|------------| e|------------ e|-----------
B|------------| B|------------ B|-----------
G|------------| G|------------ G|-----------
e5: D|------------| E5: D|------------ ó D|----9------
A|----2-------| A|----14------ A|----7------
E|----0-------| E|----12------ E|-----------




Weno pos esto es todo... como veis es muy fácil y está muy bien
A canción...
Un saludo para la gente de Mérida y a disfrutar del rock español.