Altero Mi Cuerpo

El Ultimo Ke Zierre

Album: Senderos de este infierno
Genero: Pop

Tablatura (Ver letra)

Dale que va..

C A# F G F
Altero mi cuerpo.. Busco sensaciones.. Pa’ sentirme vivo
C A# F G F
Nunca me arrepiento.. De lo que me hago.. Mas lo necesito
C G
No me busques en las calles
A# F
cuando el sol vaya por ellas,
C G
estaré solo de noche
A# F
agarrado a una botella.

/--------------------------------------------------
/-------------8-8----------------------------------
/-----------9-----10-9-10-12-10--------------------
/--10-10-10---------------------12--12-12-10---10--
/-------------------------------------------12-----
/--------------------------------------------------

----------------------------------------------/
----------------------------------------------/
10-10-10-10-9---------------------------------/ X2
--------------12-10------10----10-12-10-------/
--------------------12-12---12----------------/
----------------------------------------------/

/---------------------------------------------------------------
/---------------------------------------------------------------
/--9-10-9-10-9-10-9-10-9-10--9-12-9-12-9-12---------------------
/-------------------------------------------12-10---10----10-12-
/------------------------------------------------12----12-------
/---------------------------------------------------------------

-------------------------------------------------
-------------------------------------------------
9-17-14-14--14-17-14-16-14-17-14-16--12-15----12-
-------------------------------------------15----
-------------------------------------------------
-------------------------------------------------

/-----------------------------------------------------------/
/-----------------------------------------------------------/
/-----------------------------------14-------------12-------/
/-15-14-12--12-12-12-15-12-15-12-15----12-15-12-15----15----/
/-----------------------------------------------------------/
/-----------------------------------------------------------/

C G
Donde siempre paso frío,
A# F
y a menudo siento miedo.
C G
Donde el que quiere se pierde,
A# F
donde el que quiere me encuentra.
C A# F G F
Altero mi cuerpo.. Busco sensaciones.. Pa’ sentirme vivo
C A# F G F
Nunca me arrepiento.. De lo que me hago.. Mas lo necesito.
C G
Y si me encuentras llorando,
A# F
de rodillas sobre el vomito
C G
que salió de mis entrañas,
A# F
no pienses que estoy sufriendo
C G
la,ra,la lalala larala
A# F
la,ra,la lalala larala
C G
la,ra,la lalala larala
A# F
la,ra,la lalala larala
C A# F G F
Altero mi cuerpo.. Busco sensaciones.. Pa’ sentirme vivo

----------------------------------------------------------------

Espero que puedan sacar el punteo.. Me quedo muy cortado..
Traten de acomodarlo o de sacarlo de la tab de al lado que es
el mismo punteo..

Bueno la verdad que yo no sé sacar música de oido pero me parece
que la versión que estaba acá estaba mal..
Si alguien lo puede sacar bien, avisenme!!
Por cualquier cosa mi mail es no_identificado.7@hotmail.com

Hasta otra..