Al Barrio

El Ultimo Ke Zierre

Album: Veneno
Genero: Pop

Tablatura (Ver letra)

Un temaso de EUKZ:

ESCUCHALA PARA KE TE SEA FACIL

A DISFRUTAR!!!!!!!!!!!!!!!!!!



INTRO

E G A
e--------0--0--0-0--0-0-0--
B--------0-(0)-0-0--3-3-3--
G--------0--0--0-0--3-3-3-- rasgeo base = para los versos
D--------0--0--0-0--3-3-3--
A-----2-----3--3-3--0-0-0--
E--0--------2--2-2---------


Verso I

E G A E G A E-G-A
me dijieron en el centro ke olvidara a mis amigooos
y que no pise los bares en los que me habia perdioooa
a mis años es dificil encontrar nuevos caminooos
****
pues tengo una marca que será visible en mucho tiempooooooo

***EL RIFF 1, CAMBIA AL FINAL DEL VERSO** se hace en quintas
D--2-2--2-2---2-2-5-5--5-5--7-5---
A--2-2--2-2---2-2-5-5--5-5--7-5--- x4
E--0-0--0-0---0-0-3-3--3-3--5-3---

(solo)
( no he podido sacarlo aún, si lo consiguen ,aportenlo)


LOS ACORDES SON LOS MISMOS DEL VERSO ANTERIOR
me pregunto que me hace tan distinto a los demaas
que hace que todos me mientan si pregunto por venenooo
esta noche me meneo aunque sea haciendo dedoooooooo


RIFF 2:mientras el solo 2 suena


E5 G5 A5
D-2--2-2-2--2-2-2--5-5-5--7-7-7--
A-2--2-2-2--2-2-2--5-5-5--7-7-7--
E-0--0-0-0--0-0-0--3-3-3--5-5-5--
verso: se mantieneel riff anterior

esta noche voy al barriooo
ignorando los controles
en el barrioo
tienen duendeeees
y un venenoooo
de puta madreeeee

Final: Riff1 x4


FALTAN LOS PUNTEOS SI LOS SACAR APORTALOS


EL PIPERRO <<<<<<< MISFIRIANO♠4HOTMAIL.COM