A Cara De Perro

El Ultimo Ke Zierre

Genero: Pop

Tablatura

 Tab by SERGIO


Intro: A G A G


A G A G
Hay algo en sus palabras extrañas que no me deja escuchar,
A G A G
hay algo en sus promesas hermosas que no me deja creer,
A G A G
hay algo en sus deberes humanos que no me deja ser yo,
A G A G
algo tras sus cristales ahumados que no me dejan ver.


Estribillo: Mientras suena el estribillo de fondo:

A G F E D|-7-7h9p9---5-5h7p5---3-3h5p3-2-|
Y no, no, que no se acerquen a mi esos fantasmas

A G F E
que yo, yo, quiero ser animal esta noche.


A G A G
Hay algo en esas vidas perfectas que no me deja vivir,
A G A G
hay algo en sus escuelas de esclavos que no me deja aprender,
A G A G
hay algo en sus trabajos modernos que no me deja crecer,
A G A G
algo tras sus miradas esquivas que no me deja ver.


Estribillo x 1


F E
Quiero ser animal esta noche,
F E
animal que destroza lo que no entiende,
F E
que se caga y se mea por las aceras,
F E
senderos de este infierno


Estribillo x2


Solo: Acordes: A G F E

e|------------------------------------------------12-13-13-12-13-12-----------------------------
B|--------------13-12h13p12--------------12-13h15-------------------15-13-15-17-15h17p15----15--
G|--14p12h14----------------14-12-14-----------------------------------------------------16-----
D|----------------------------------------------------------------------------------------------
A|----------------------------------------------------------------------------------------------
E|----------------------------------------------------------------------------------------------


---------------------------------------------------------------------------------------------------
---13-12-13-12----13p12---------------------------------------------12-13-15-13-12h13p12----12-13--
------------------------14p12-14p12-12-12------14-12h14p12----12-14----------------------14--------
-----------------------------------------------------------14--------------------------------------
---------------------------------------------------------------------------------------------------
---------------------------------------------------------------------------------------------------

--------------------------------------------------------------------------------------------
-13-12--------------------------------------------------------------------------------------
-------14-12--------------------------------------------------------------------------------
-------------15-14-15----15-14-12----12-------------12-14-15/17\15-14-12----12-14-12-14-15--
----------------------------------15----15-12----15----------------------15-----------------
--------------------------------------------------------------------------------------------

-------------------------------------------------------------------------|
-13-12-------------------------------------------------------------------|
-------14-12--------------------------------------------12---------------|
-------------15-14-15--17-15-14-14h15p14-12----12-14-15----15-14-14------|
--------------------------------------------15---------------------------|
-------------------------------------------------------------------------|




PARA CUALKIER COSA:

TRIBAL2@HOTMAIL.COM