Los ángeles No Tienen Hélices

El Ultimo De La Fila

Genero: Pop

Tablatura

Vamo allá. Lo explicare por partes porque es muy repetitiva.
Las partes son las siguientes:




PARTE 1:

E---------------------------------------------------------------
B---------3------3-----------------------3-----3-------------3--
G-------4------4---------0------0------4-----4--------0---------
D-----5------5---------4------4------5-----5--------4-----4-----
A--------------------5------5---------------------5-----5-------
E---------------------------------------------------------------

PARTE 2:

E---------------------------------------------
B-------3------3------0----------3------0-----
G-----4------4------0----------4------4-------
D---5------4------2----------5------4------2--
A---------------------------------------------
E---------------------------------------------

PARTE 3:

Em D x3 Em D
E---------0--0--0-----2---2-0-2--|-|---------2-----------------------------------------
B---------0--0--0-----3---3-3-3--|-|---------3-----------------------------------------
G---0--0--0--0--0-0---2---2-2-2--|-|--0--0---2----------------------------------------------
D---2--2--2--2--2-0---0---0-0-0--|-|--2--0---0----------------------------------------------
A---2--2--2--2--2-0---0----------|-|--2--0---------------------------------------------
E---0--0--0--0--0-0--------------|-|--0--0--------------------------------------------

PARTE 4: la parte cuatro es simplemente tocar un Sol.



(instrumental) PARTE 1


(PARTE 1)
Como garfios de plata
se clavan tus dedos en mi cuerpo,
y tu risa se gasta
entre mis besos encendidos.

(PARTE 2)
Olor de algo que no existe
de amor que tal vez no existía jamás.
Quiero atarme a este momento,
que pasó que ya no estas.

(PARTE 1)


(PARTE 3)
Quiero quedarme clavado en tu mirada.
Fulminado por ese algo que desprendes.

(PARTE 1)
Como fauces de loba
se clavan tus dientes en mi cuerpo
y tu risa se gasta entre mis labios
encendidos de pasión.

(PARTE 4)
Aferrarme a tu cuerpo
desesperadamente a ese momento
que paso que ya no estas.

(PARTE 2)
Entre las sombras de esta cama
besándome despacio,
eres la fiera que apenas conozco.

(PARTE 3)
Quiero morirme en este momento
quiero quedarme, clavado a tus besos.

(PARTE 3)
Quiero morirme en este momento
quiero quedarme ,clavado a tu cuerpo.


(PARTE 4)

(PARTE 4)
El nuestro, no es un amor perfecto,
pero tampoco los ángeles tienen hélices.
A veces te busco y solo quiero sexo,

(PARTE 2)
sólo quiero tu cuerpo.
Y tu me dices que no somos felices.

(PARTE 3)
Eres lo que busco siempre que te alejas
dejándome vacío a tus espaldas.

(PARTE 3)
En esta vieja cama
de habitación de hotel barato
temblando, como un perro viejo.





Po eso es todo. Saludos del Karmo.