Insurrección

El Ultimo De La Fila

Genero: Pop

Tablatura

INSURRECCION

Intro1: G C G C
--3----------0-----------------3----------0-
--0----------1-----------------0----------1-
--0----------0-----------------0----------0-
--0-------0--2--2--0--2--2--0--0-------0--2-
--2--0--2----3-----------------2--0--2----3-
--3----------------------------3------------

Intro2: G C
--3----------0--
--0----------1--
--0----------0--
--0-------0--2--
--2--0--2----3--
--3-------------

Intro1
G C
¿Dónde estabas entonces
G C
cuando tanto te necesité?
G C
Nadie es mejor que nadie
Bm C
Pero tú creíste vencer.
G C
Si lloré ante tu puerta
Bm D
de nada sirvió.
G C G C
Barras de bar vertederos de amor
G C D C
os enseñé mi trocito peor.
G Intro2
Retales de mi vida,
C G Intro2
fotos a contraluz.


D C D
Me siento hoy como un halcón
C
herido por las flechas de la
G Intro1
incertidumbre.

G C G C
Me corto el pelo una y otra vez.
G Bm D
Me quiero defender.
G C G C
Dame mi alma y déjame en paz.
G C Bm D
Quiero intentar no volver a caer.
G Intro2
Pequeñas tretas
C G C
para continuar en la brecha.


D C D
Me siento hoy como un halcón
C
llamado a las filas de la
G Intro1
insurrección.