Cosas Que Pasan

El Ultimo De La Fila

Album: Astronomía razonable
Genero: Pop

Tablatura (Ver letra)

-Cosas que pasan- (diseccionando la canción)

Muy buenas otra vez! Aqui estamos en la tabla de operaciones.
Esta vez le toca a Cosas que pasan.

Es una cancion bastante sencilla la cual recomiendo que aprendais
porque a parte, divierte tocarla. Se divide en tres trozos: El punteo,
Los acordes y el estribillo (en este ultimo trozo no suena casi la guitarra
pero intentaremos hacer algo que suene fiel a la cancion) Vamos alla:

Parte A (el punteo)

E---------0-------------------------------0------------------------------
B-------6------0)1-------------3--------6------------1-------1-----1-----
G-----5------------2------------------5------------2-------2-----2-------
D---0----------------2----2)4-------0------------2-------3-----2-----0---
A----------------------------------------------0-------------------------
E------------------------------------------------------------------------

Parte B (los acordes)

Acorde 1: XXXX11 (o bien un Fa)
Acorde 2: XXXX10 (o bien un Lam)
Acorde 3: XXXX31 (o bien un Rem)
Acorde 4: XXXX10 (o bien Lam, y metemos la terminacion de la \'Parte A\')

Parte C (osease, el estribillo, que lo podemos repetir dos veces)

E-----------3---------0--------0--------------------------3-------0---------3--3---3-
B---------3---------3--------1---------1----1-----------3-------3---------3-----3---3
G-------0---------2--------2---------2----2-----------0-------2---------2--------0---
D-----0---------0--------2---------3----2-----0-----0-------0---------0--------------
A---0---------------------------------------------0-----------------0----------------
E------------------------------------------------------------------------------------


Os sonarán las notas cuando escucheis la canción y ya sabeis, siempre podeis cambiar
algo si os suena mejor. Vamos a la canción:

(Intro, con la Parte A)


(Parte B):

1 2
Al ritmo de tus días,
3 4
al flujo de tu tiempo, vela que dominas.
1 2
Al vaivén que marcas, caprichosa, amor,
3 4
a tu calor, me arrimo.


(Parte A):

Flor de pradera: de ti necesito.
De tu esencia me impregné
y ahora estoy atado a ti,
y el sulfuroso reclamo
es el deseo que por ti siento.

(Parte B):

1 2
Deseo de tus noches mientras duermes,
3 4
deseo de tu latir y de tu aliento,
1 2
y al abrigo de tus besos
3 4
adentrarme en un camino que tras de mí se borre.

(Parte C):

Si tu bendita presencia
es la ofrenda ante el altar,
el agua de tu caudal
es la querencia animal.

(Parte B:)

1 2
A este desbordado antojo,
3 4
a este musgo de la roca donde me alojo.

(Parte C):

En el panal de tus cuevas puedo ocultarme y brotar,
y en tus recónditas curvas puedo poblarte y amar,
desde tu tobillo moreno
al sonido de la trenza de tu largo pelo.



Pues nada, espero que os suene mas o menos la canción a la real jajaja.

Dedicada a mi hermano que sin el tampoco hubiera sido posible sacarla.

Un saludo y nos vemos en otra operación!!

-Karmo-