Canta Por Mí

El Ultimo De La Fila

Album: Nuevo pequeño catálogo de seres y estares
Genero: Pop

Tablatura (Ver letra)

Pedazo de canción, sacada del Directo en del disco, Historia de una banda.

Enlace: https://www.youtube.com/watch?v=8PHh1eA3AWM

Escucharla que es bastante fácil de tocar. No os olvidéis de valorarla.

un saludo y que les vaya bien bonito.

INTRO y luego se repite como segunda guitarra en el arpegio principal

--0-0-0-0-0-0-0----
-3-3-3-3-3-3-3-----
-------------------
-------------------
-------------------
-------------------
ARPEGIO PRINCIPAL a continuación de INTRO

Bm A(sus4) Em G A Bm A(sus4) Em A
--------------------------------------------------------------
----3-------2-------0------3----5----3-------2--------0---2---
---0-0-----0-0-----0-0----4----6----0-0-----0-0------0----2---
--4---4---2---2---2------5----7----4---4---2---2----2-----2---
-2------0------2--------------2------0-------2----------
--------------------------------------------------------------


ARPEGIANDO COMO ARRIBA

Bm A(sus4) Em G A
Cruzo el pasado en el camino
Bm A(sus4) Em A
y lo miraba y no podia llorar.
Bm A(sus4) Em G A
Entre el crepusculo y el alba
Bm A(sus4) G
no hizo otra cosa que dejarse llevar.


Esta parte se puede hacer en forma de acordes

D Em
Y refulgiendo cual luciérnagas,
G A
caminando sin prisa sobre el tiempo
D Em
huyen de un mundo material,
G A
son espíritus barridos por el viento.

Estribillo:

Bm D G A
Y ahora van
Bm D G A
hacia su abstracción,
Bm D G A
dales solo paz y una sonrisa,
Bm D G
cielo abierto y aire para respirar.

Puente:
A G A G
---------------------------
----0-----3------0------3--
---2-2---0-0----2-2----0-0-
--2-----0------2------0----
-0----2-----0-----2----
---------------------------

ARPEGIANDO COMO ARRIBA

Bm A(sus4) Em G A
Caen las estrellas de su manto,
Bm A(sus4) Em A
verdean los campos a un resquicio de luz,
Bm A(sus4) Em G A
la pradera ahora es su casa
Bm A(sus4) Em A
donde la espiga brota entre la flor.


Bm A(sus4) Em G A
Si les miente la vida
Bm A(sus4) G
se hacen parapetos con poemas.


Todo acordes hasta el final

D Em
Un día color de melocotón,
G A
cuando todos seamos libres,
D Em
cuando las piedras se puedan comer
G A
y ya nadie sea mas que nadie,

Estribillo

Bm D G A
canta por mi
Bm D G A
si no estoy aquí.

Bm D G A
Viene el día en que seremos puros
Bm D G
como un cielo de verano sobre el mar.
Bm D G A
Cantare por ti
Bm D G
si no estas tu aquí.

Final: A Bm