Aviones Plateados

El Ultimo De La Fila

Genero: Pop

Tablatura

E*: 0XXXXX 2x
D*: XXX23X
E**: X2XXXX

Intro Riff1 Riff2

Em Em
e|--------------------- e|-----2-3-----5---
B|--------------------- B|---0-------0---2-
G|-----3-3-----3---3-3- G|-----------------
D|---2-----2-4---2----- 2x D|-2-------2-------
A|--------------------- A|-2-------2-------
E|-0------------------- E|-----------------

Riff3 Riff5

E|-0-2-3- e|-----------------------------------
B|-----------------------------------
G|-----0-2-2s4-2-0-------0-2-2s4-2-0-
Riff4 D|---2-------------2---2-------------
A|-2-----------------2---------------
E|----3-0-3-3-2-0- E|-----------------------------------


C Em C G D7 Riff1/Riff2
Veo tu casa desde mi balcón
C Em C E*
chimeneas y tu ropa al sol
D* Cmaj7 Riff3 D* G6 Riff4
aviones plateados rozando los tejados
D* Cmaj7 Riff3 D* G6 Riff4
vestido y en la cama vigilo tu ventana

Riff5

C Em C G Em E** G6
Miro libros de pintura que robé
C Em C G Em E** Em
no tengo hambre hoy no comeré
D* Cmaj7 Riff3 D* G6 Riff4
no se de que me quejo, ya tengo lo que quiero
D* Cmaj7 Riff3 D* G6 Riff4
soy libre ante el espejo, no salgo ahora que puedo

Em G C Em
Y tu siempre dices que soy
G D Dsus D Em
un alma del averno
G C Em
tendre que darte la razón
G D Dsus D Em
quiza sea cierto
G C Em
Siempre suelo querer
G D Dsus D Em
lo que no tengo
G C Em
y ahora que ya no estas aqui
G D
me voy consumiendo

Em Am C D
e|---------------------------------
B|---------------------------------
G|-0-----2-0-2-2-0-2-0-0-----------
D|---4-2-----------------4-2-4-2-2-
A|---------------------------------
E|---------------------------------

Em Am C D
e|---------------------------------------
B|---------------------------------------
G|-0-----2-0-2-2-0---0-----0-------------
D|---4-2-----------4---4-2---4-2-4-2-0-2-
A|---------------------------------------
E|---------------------------------------

Em C C Em Em C C Am G6 G6 Am Am/Bm5 Am G6 C

Em C G Em E** G6
Ropa sucia, cuadros que he pintao
C Em C G Em E** Em
discos viejos, too por ahí tirao
D* Cmaj7 Riff3 D* G6 Riff4
mas vale quince días, no me levantaria
D* Cmaj7 Riff3 D* G6 Riff4
desorden en campaña, ahora se que me engaña

Em G C Em
Credenciales de posesion
G D Dsus D Em
que tontería
G C Em
estos celos me han abrazao
G D Dsus D Em
no sé que me creía
G C Em
Y yo que decia porfin
G D Dsus D Em
ahora la tengo
G C Em
y ya estaba e vuelta de too
G D
a ver si aprendo

Em C Em
Y tu carta me confundio
D Dsus D
ahora lo entiendo
Em C Em
tu mirada me lo advirtió
D Dsus D
tu "jamas vuelvo"...


Em C Em D Dsus D