Madre Y Niña

El Rolas

Genero:

Tablatura

ESTA ES UNA MUY BUENA ROLA, ESPERO QUE LES GUSTE
COMIENZA ASÍ:

INTRO 1: 2VECES
Am Asus4 Am
e--------------------------------------5---
B------------1----3----1----0--------------
G--------------2----2----2----2-0-0h2------
D----------------2----2----2---------------
A--------0---------------------------------
E--0h2-3-----------------------------------

INRO 2: ESTE ES EL ARPEGIO QUE SE ESCUCHA DE FONDO
PERO AUN SIN LOS REQUINTOS SE ESCHUCHA BIEN,
LO TOCAS DOS VECES Y LUEGO COMIENZAS CON LOS RASGUEOS:

Am G F E
e-----0----0-----------3-----3---------1-----1-----------0-----0-------
B-------1----1-----------0-----0---------1-----1-----------0-----0-----
G--------2----2-----------0-----0----------2-----2-----------1-----1---
D----------------------------------------------------------------------
A----------------------------------------------------------------------
E---0---------------0----------------1-----------------0---------------

INTRO 3: Am G F E 2 VECES

Am G
NO CONSEGUISTE EL PERDON PEQUEÑA
F E
EL TECHO PARA TI SE ACABO
Am G
PARA TUS PADRES YA NO EXISTES
F E
YA PUEDES MARCHARTE Y SIN DESPEDIRTE
Am G
¿QUE HARAS AHORA QUE EL
F E
CIELO NACE EN TUS ENTRAÑAS?
Am G
ARRIESGAS DOS VIDAS EN LAS
F E
MANOS DE UNA VIEJA EXTRAÑA
Am G F E
ABORTAS LUPE EH IEH IEH
Am G F E
ABORTAS LUPE EH IEH IEH

CON ESAS NOTAS VA CASI TODA LA ROLA
ESCUCHALA PARA QUE ENTIENDAS LOS CAMBIOS

SOMBRA DE LA NOCHE VAS
DE CULPA ENVUELTA ARAÑANDO TIMBRES
TE HAN AZOTADO YA MIL PUERTAS
Y AUNQUE LLORAS NO TE RINDES
¿QUE HARAS AHORA QUE HA
FALLADO EL TE DE LA YERBERA?
DESGARRA EL MURMULLO
DEL CAMION UN GRITO EN LA PARTE TRASERA
YA ES MADRE LUPE YE EH IEH IEH
YA ES MADRE LUPE YE EH IEH IEH

Am G F E 4 VECES

Am G D Dsus4
e----------0---------------3------------2h3---
B-------1---1-----------0---0--------3-------
G-----2-------2-------0------0-----2--------
D---2---------------0------------0-----------
A-0--------------2---------------------------
E---------------------------------------------

HABLADO: EN ESTA PARTE PUEDES ARPEGEAR
O RASGUEAR LAS NOTAS ANTERIORES, ES LA
UNICA PARTE DONDE CAMBIAN LAS NOTAS

“ANTES QUE EL ALBA YA ESTA ARRIBA
CORRIENDO A LA FABRICA ATRÁS DEL CAMION
TU NENA ENCERRADA CON LA VECINA
LLORANDO TE ESPERA PATEANDO EL PORTON
YA ERES MADRE Y NIÑA NO DEJAS DE SERLO
AUNQUE ELLA NACIO
YA ERES MADRE Y NIÑA QUE NO CUMPLIO
CON SUS SUEÑOS

AQUÍ VUELVE A SONAR EL MI MAYOR
Am E
¿QUE SERA DE LAS DOS?

Y AQUÍ VUELVES A TOCAR LAS NOTAS DEL INICIO
Am G
VOLVERAS DE NOCHE CANSADA
F E
RESANDO POR ELLA
Am G
SECARAS SUS MEJILLAS ROSADAS
F E
A LA LUZ DE UNA VELA SAL Y DURAS DE ANTIER
Am G F E
YA ERES MADRE LUPE YE EH IEH IEH
Am G F E
YA ERES MADRE LUPE YE EH IEH IEH
Am G F E
TE ARREPIENTES LUPE YE EH IEH IEH
Am G F E
AHORA YA ES TARDE LUPE IEH

Am G F E 3 VECES

Y ESTE ES EL FINAL:

Am Am
e----------0-5-7/8-7-5-7/8-------------------0
B--------1---------------------7-5------------1
G------2----------------------------7-5--------2
D----2-----------------------------------7------2
A--0---------------------------------------------0
E-------------------------------------------------X

BUENO ESO ES TODO.
UN SALUDO PARA TODOS LOS ROCKANROLEROS
SEGUIDORES DEL ROCKANDROLAS