Sevillanas Hipotecadas

El Puchero Del Hortelano

Genero: Pop

Tablatura

La canción se interpreta con dos guitarras. La primera (GUITARRA A)
lleva el ritmo de la sevillana y la segunda (GUITARRA B) lleva un
punteo simultáneamente. Ambas llevan la cejilla en el segundo traste.

Introducción 1

GUITARRA A --> MUDA

GUITARRA B --> Solo

|--------------|--------------|--------------|--------------|
|--------------|--------------|--------------|--------------|
|11--11--11-14-|11--11--11-14-|11--11--11-14-|11------------|
|------14------|------14------|------14------|--------------|
|--------------|--------------|--------------|--------------|
|--------------|--------------|--------------|--------------|


|--------------|--------------|--------------|--------------|
|--------------|--------------|--------------|--------------|
|------14------|------14------|------14------|--------------|
|11--11--11-14-|11--11--11-14-|11--11--11-14-|11------------|
|--------------|--------------|--------------|--------------|
|--------------|--------------|--------------|--------------|

Cuando se acaba esta primera intro comienza la segunda

Introducción 2 (entra la segunda guitarra A haciendo los acordes
a ritmo de sevillana con doble raqueo, la guitarra B hace el punteo)


Am F C G Am


|10----10-----10---10----10----|-------------------------------|
|--12-----12----12---12----12--|-------------------------------|
|----11-----11---11----11----11|---11-12-11-----------11-12-11-|
|------------------------------|-------------14-12-14----------|
|------------------------------|-------------------------------|
|------------------------------|-------------------------------|

F C

|10----10-----10------|
|--12-----12----12----|
|----11-----11---11---|
|---------------------|
|---------------------|
|---------------------|

PRIMERA


Am F G Am
O to el mundo está de vuelta, o yo ando medio perdío,


|-------------------10----9------7-7-7-7----|
|-------------------10----9------7-7-7-7----|
|-------------------10----9------7-7-7-7----|
|----------4--7--9--------------------------|
|----5--7-----------------------------------|
|--7----------------------------------------|


Am F C
Medio perdío, cansao de tanta gente tonta, de tanta tele, de tanto ruío,
G Am F C
de tanto escaparate lleno, de la promoción que nunca he tenío.
Am F
Ando aburrío, de tanta modelito haciendo el indio,
C
pa modelo la que me ha parío,
G F Am F C
modelos los que dan lo que tienen, los que miran claro, los agradecíos.

F G
Y se vive acojonao, cuando escuchas en los diarios,
C E Am
dicen que van a subir los créditos hipotecarios,
F G Am
y ya no se duerme bien por la noche,... donde hemos llegao!


SEGUNDA


Am F G Am
Mi amigo Francisquito, hace aviones de papel. (de papel,de papel)
Am F C
De papel, les hace una rajita abajo, pa la aerodinámica, que vuelen bien,
G F Am F C
los lanza y le salen volando, así también quisiera volar él.
Am F
De papel... mojado son sus sueños,
C
que penita no poder se lo que quieres ser,
G Am F C
penita que me da la gente que no lucha cuando no hay na que perder.

F G
Y se vive acojonao, cuando escuchas en los diarios,
C E Am
dicen que van a subir los créditos hipotecarios,
F G Am
y ya no se duerme bien por la noche,... donde hemos llegao!


TERCERA

Am F G Am
Me gustan las personas, me gusta la vecindad.
Am F
Vecindad, que es secreto es el respeto, escucha,
C
que vivas tu vida y que dejes vivir,
G Am F C
pero que fáciles serían los días si la gente viera que es mejor así.
Am F C
Así, sin raíles, sin caminos asfaltaos que conducen al mismo lugar,
G
y es que es mu aburrio que la gente compre, vista,
Am F C
coma y se comporte igual

F G
Y se vive acojonao, cuando escuchas en los diarios,
C E Am
dicen que van a subir los créditos hipotecarios,
F G Am
y ya no se duerme bien por la noche,... donde hemos llegao!


CUARTA

Am F G Am
Que bonitas las palabras, cuando sabes escuchar.
Am F
Escuchar, abrir la mente sin prejuicios,
C
un poco de empatía que nunca viene mal,
G Am F C
que bonitas las palabras y que feos los que las quieren matar.
Am F C
Matar, aquellos que se creen que solo lo que ellos dicen
G
es el no va más, no va menos, no me jodas, no me viene a mi
Am F C
la gana de tenerlos que aguantar

F G
Y se vive acojonao, cuando escuchas en los diarios,
C E Am
dicen que van a subir los créditos hipotecarios,
F G
y ya no se duerme bien por la noche,...
F G
y no se duerme bien por la noche,...