Niña No Te Modernices

El Payo Juan Manuel

[[NOTA]]
Canción de humor de los 90\'s... no sacar de contexto!!!
________________________________________________________

[Intro]

F - F# - G# - F# - F x 2

[Estrofa 1]

F
Que pasa contigo tía!
F#
Vaya un cambio que has pegao!
G#
pues bebes tintorro en bota
G# F
y más porros que un drogao.
F
Sales de casa a las doce
F#
de la noche pa ligar
G#
y llevas metio en el bolso
F# F
pastillas de premamá.

[Estribillo] x 2

F
La cogí del cuello,
F#
la tiré al colchón,
G#
me lance hacia ella,
F# F
la dí un palizón...

[Instrumental (punteo)]*

[Estrofa 2]

F
El caso es que las mujeres
F#
todo lo saben hacer
G#
juegan al fútbol y al tenis
F# F
y hasta torean también.
F
Ningunas cogen un pico
F#
ni se ponen a currar
G#
a hacer ninguna autopista
F# F
no saben las tías na!

[Estribillo] x 2

F
La cogí del cuello,
F#
la tiré al colchón,
G#
me lancé hacia ella,
F# F
la di un palizón...

[Intrumental (punteo)]*

[Estrofa 3]

F
Yo se bien que la mujer
F#
ha estado discriminada
G#
pues estaba siempre en casa
F# F
cosiendo o con la colada.
F
Yo opino que la mujer
F#
lo mejor que sabe hacer
G#
es casarse y tener hijos
F# F
y estar en su casa bien!

[Estribillo] x fade out


*Punteo

e-----------6-------
b-7-6---6-7---9-7-6-
g-----8------------- x2
d-------------------
a-------------------
E-------------------

e--------------------------------------------------
b-6-------6-9-7-6-----------7-6--------------------
g---8-6-8---------8-6-5-6-8-----8-6-5--5-6---------
d-------------------------------------8----8-6-----
a----------------------------------------------9-8-
E--------------------------------------------------