Don Pascual

El Kinto

Riff 1

12-12-12---10-10-10---8--8--8----7--7--7---
12-12-12---12-12-12---10-10-10---8--8--8---
-------------------------------------------
--------------------------------------------
-------------------------------------------
-------------------------------------------

Riff 2
Em Em
-------------------------
-------------------------
-------------------------
----2-------------2------
-2-----4------2-----4---
-------------------------

Riff 3

--------------------
--------------------
-------------2------
----0--2--4-----4---
-4------------------
--------------------

Riff 1

Riff 2

G Em
Tira una linea al agua Don Pascual
G Em
Y espera toda una tarde Don Pascual
G Em Riff 3
Que el tiempo te dirá Don Pascual
G A Em
Si puedes tu pescar

Riff 2

D Bm G Em
De la costa te gritan Don Pascual
D Bm G Em
"Se va lo que se va" Don Pascual
G Em Riff 3
Solo sonríe sin contestar
G A Em
Y vuelves a tirar

Riff 1

Riff 2



Los versos se repiten despues. Un gran tema de "El Kinto" de
Ruen Rada, Eduardo Mateo, Urbano Moraes y Pippo Spera entre otros.
Se le puede hacer alguna modificación pero así
ya suena bastante bien.