Lo Salvó La Policía

El Juego

Genero:

Tablatura

Punteo:


e|-----11-11--11--11-11- 9|-9--9-9--9-11-9-|
B|9-12--------------------|--12------------|
G|------------------------|----------------|
D|------------------------|----------------|
A|------------------------|----------------|
E|------------------------|----------------|

e|-----9-9--9-9-11-9-|-9--11-11-11-9---|
B|8-11---------------|--12----------12-|
G|-------------------|-----------------|
D|-------------------|-----------------|
A|-------------------|-----------------|
E|-------------------|-----------------|

El Punteo se Repite dos veces!!


G#m D#
Cuando fui para tu barrio te cuento lo que paso
G#m
Nos cruzamos un par de chetos y ahí nomás se re pudrió
D#
Le copamos la ranchada le rompimos el portón
G#m
Y vos saliste corriendo porque vos sos un cagón

[Est.]
F#
Y lo salvo
G#m
La policía
F# G#m
Sino estaban tan corriendo todavía (x2)


Después da otra vuelta más y hace lo mismo
Espero que les Haya servido

Leito De La Revancha

Habia unos Errorecitos pero ya esta listo