Vuélveme Loco

El Hombre Gancho

Genero:

Tablatura

Lista de acordes (recomiendo usar estas posiciones):

Cm G Fm G#

E|----3------| E|----3------| E|----4------| E|----4------|
B|----4------| B|----3------| B|----6------| B|----4------|
G|----5------| G|----4------| G|----5------| G|----5------|
D|----5------| D|----5------| D|----3------| D|----6------|
A|----3------| A|----5------| A|----3------| A|----6------|
E|----3------| E|----3------| E|----3------| E|----4------|


INTRO:

E|--------------3-------|--------------------|--------------3------|
B|--4---------4---3-6---|--3-----------4-----|--4---------4---3-6--|
G|----5-----5-----------|----4-----4---------|----5-----5----------|
D|------5-5-------------|------5-5---5-------|------5-5------------|
A|----------------------|--------------------|---------------------|
E|----------------------|--------------------|---------------------|

E|---------------------------------------|
B|--------------------------------4-3----|
G|----------------------------5-5--------|
D|------------------3-3-5-6-6------------|
A|--------3-3-5-6-6----------------------|
E|--3-4-4--------------------------------|

Cm
Por su boca ya ha muerto mil veces
G
No le importa morir otra vez, porque lleva la vida muriendo
Cm
por la culpa de ese querer
G
Él que era un tipo cabal, la ruina le pisa los pies
Cm
Se ha quedado clavado en el sitio por capricho de una mujer

Fm Cm G Cm
Trátame así, que me vuelva loco, eso le dio y eso se tomó
Fm Cm
Tanto fue así que le hizo tal roto
Fm Cm G
Que en la vida se ha visto suicida que quiera tal vida…


ESTRIBILLO:

Cm Fm
Vuélveme loco loquito lo crazy
G Cm
Ven desordena mi vida y trátame así
Fm
Vuélveme loco que ya he renunciado a la suerte
Cm G
Que no hay droga ni noche serena que calme la pena
Cm Fm Cm
de vivir sin ti, que esta noche regalo mi vida
G Cm G
basta que la pidas, para dártela a ti…

REPETIR INTRO:

Cm G
De los bares el omnipresente, de la luna el mejor partener
Cm
Nunca nadie ha podido tumbarle, nadie pudo pararle los pies
G
Pero fu caminito al infierno una noche que se despistó
Cm
y le dijo a todos, ahora vuelvo, pero el lobo nunca volvió

Fm Cm G Cm
Trátame así, que me vuelva loco, eso le dio y eso se tomó
Fm Cm
Tanto fue así que le hizo tal roto
Fm Cm G
Que en la vida se ha visto suicida que quiera tal vida…

ESTRIBILLO:

Cm Fm
Vuélveme loco loquito lo crazy
G Cm
Ven desordena mi vida y trátame así
Fm
Vuélveme loco que ya he renunciado a la suerte
Cm G
Que no hay droga ni noche serena que calme la pena
Cm Fm Cm
de vivir sin ti, que esta noche regalo mi vida
G G#
basta que la pidas, para dártela a ti…


SOLO DE GUITARRA (fíjese que se entra al solo saliendo del
estribillo en G#):

E|------------------------------------------|
B|--9-9-8------9-9-8------------11----------|
G|--------10-8-------10-8-10/12----12/10-8--|
D|------------------------------------------|
A|------------------------------------------|
E|------------------------------------------|

E|-----8----------------------------|--------------------------------|
B|-8-8---11-9-8--------------12-----|--------13----13--------13---13-|
G|--------------10-8-7--10/12---12--|--12-12----12-----12-12---12----|
D|----------------------------------|--------------------------------|
A|----------------------------------|--------------------------------|
E|----------------------------------|--------------------------------|

E|--8-11-8----8---------------------------|
B|---------11---11-8----8-----------------|
G|-------------------10---10-8----8-------|
D|-----------------------------10---10----|
A|----------------------------------------|
E|----------------------------------------|

E|----------------------------------------|
B|-------------------------12-------------|
G|---10-10-8-10-10-8-10/12----12----------|
D|---10-10---10-10------------------------|
A|----------------------------------------|
E|----------------------------------------|

ESTRIBILLO (otra vez):

Cm
Mira que está loco
Mira que se calla
G
Mira que se come el coco
Mira que se quema
Mira que se queda
Cm
Mira que duerme poco

Cm
Mira que está loco
Mira que se calla
…………………..
…………………