Mañana Será Otro Día

El Hombre Gancho

Genero: Pop

Tablatura

INTRO:

D G A
E|--2-----0-2-0--------0-2-0------0-2-0-------3-2----2---|
B|--3--3-------3----3-------3---3-------3---3-----3--3---|
G|--2------------ 2-----------0-----------2----------2---| X2
D|--0------------------------------------------------0---|
A|--0------------------------------------------------0---|
E|--0------------------------------------------------0---|


D G
Cuando me faltaron las fuerzas y la suerte pasó de mi
A G A
Cuando no hubo ganas de nada y no me sentí feliz
D G
Cuando mi divina comedia en mi drama se convirtió
A G A
Cuando se cerraban las puertas, ella su llave me dio
G A D G Em
Cuando todos se marchaban ella llegaba, cuando más solo estaba
A
solo ella se quedó…


ESTRIBILLO:
D G A
Y me dio su capa y me dio su espada
D G A
Y me dio las fuerzas cuando a mi más me faltaban
D G A Em
Y me dio su noche mientras yo dormía y me dijo que…
A
mañana sería otro día



D G
La soledad de mi silencio con claridad me fue pudiendo
A D
puto dolor, vete muy lejos déjame ser lo que yo quiera
G
dame una luz, dame una tregua, déjame en paz
A G
fuera tristeza, vete de aquí, que si no brilla mi estrella
A
ella brilla por mi…
G A D G Em
Cuando todos se marchaban ella llegaba, cuando más solo estaba
A
solo ella se quedó…


REPETIR ESTRIBILLO:
…
REPETIR INTRO:
…


F# Bm Em A
Y me pintaba angelitos, mientras mis demonios hacían la guerra
F# Bm A
Y se quedaba conmigo…


REPETIR ESTRIBILLO:
…
REPETIR INTRO:
…


NOTA: durante los estribillos parece que la guitarra principal
acompaña tocando las dos primeras cuerdas para cada acorde
haciendo algo así (suena bien):

Acorde D:
E|---2---2---2---2---2---2---2--
B|-----3---3---3---3---3---3----
G|------------------------------
D|------------------------------
A|------------------------------
E|------------------------------

Acorde A:
E|---0---0---0---0---0---0---0--
B|-----2---2---2---2---2---2----
G|------------------------------
D|------------------------------
A|------------------------------
E|------------------------------

Acorde G:
E|---3---3---3---3---3---3---3--
B|-----3---3---3---3---3---3----
G|------------------------------
D|------------------------------
A|------------------------------
E|------------------------------