El Borracho

El Hombre Gancho

Genero:

Tablatura

(atencion a la medida, que es un 3x4)



Entrada y solo: (cuidado con esto, es mejor escuchar la cancion y tocarlo
al ritmo y no guiarte por esto, las notas estan bien, pero no estan puestas
tantas veces como las toca el guitarra del grupo)



Dm Am
e-8---8---8---8-----7-7---5--------8---8---8---8-----7-7---5----
B-10--10--10--10----8-8---6--------10--10--10--10----8-8---5----
G---------------------------------------------------------------
D---------------------------------------------------------------
A---------------------------------------------------------------
E---------------------------------------------------------------

E Am
e-8---8---8---8-----7-7---/7--7-7-7-7--7-7-7-8-7--8--7--7--5-----
B-10--10--10--10----8-8---/9--9-9-9-9--9-9-9-9-9--9--9--9--5-----
G---------------------------------------------------------------
D---------------------------------------------------------------
A---------------------------------------------------------------
E---------------------------------------------------------------



Dm
Tan borracho como siempre,

Am
en la acera se estrello

E
Le hizo mella el aguardiente

Am
y un sudor que de repente, le detuvo el corazón



(Ahora ya es todo el rato igual)

Todos pasan por su lado, nadie le quiere ayudar
El mismo se lo ha buscado
Consecuencia y resultado de no ver la realidad

Dando tumbos por la vida, se hace largo su rodar
Engrasando con tequila
El cerrojo de una herída que no acaba de cerrar

Pobre loco desgraciado, todos saben criticar
Pero que levante la mano
Quien ha vivído demasiado y no quiera vivir más

y una lagrima rodó, y acabó su mala suerte
y un suspiro se escapo pa pedir perdón a dios
por no sér valiente


Dm Am
y una lagrima rodó, y acabó su mala suerte

E
y un suspiro se escapo pa pedir perdón a dios

Dm Am E Am Dm
por no sér valiente.

Am E Am E A