Rapsodia En Si Menor

El Haragán Y Compañía

Genero:

Tablatura

INTRO:
G B
E-----------------------------------------]
B-----------------------------------------]
G---12---------12--11---------------------] (x4)
D------12---9----------12-9-9-12-9-11-12--]
A-----------------------------------------]
E-----------------------------------------]

B
Si tú me dices que ya no me quieres
E B
No por eso voy a llorar,
E B
No por eso voy a llorar.

INTRO: (x1)

B
Si tú me dices que ya no eres mia
E B
No por eso me voy a morir,
E B A
No por eso me vo´a morir... No

B
Como un perro,
A E
Que nadie le tira un hueso
B
yo te seguí,
A F#
y pasado el tiempo
D A
Te olvidaste de mí

B A
wouuoo, wouuoo,

eso no,
B
no puede ser así
A
wouuoo,

eso no,
F#
no debe ser así

B
Si tú me dices que ya no me quieres
E B
No por eso voy a sufrir,
E B
No por eso voy a sufrir.

INTRO: (x1)

B
Si tú me dices que ya no eres mía,
E B
No por eso me vo´a matar,
E B A
No por eso me vo´a matar

D A
No voy a decirte en esta canción,
E G B
Lo que dicen todas las canciones de amor
B A
Que tú eres lo mejor de mi vida,
E G B
que sin ti no sé vivir
A F#
Sólo te dire una verdad absoluta,
B
Te quiero
G D
Como a la estrella que brilla más,
B G D
Como a mis sueños quiero más,
B G D
Como a la estrella que brilla más

B
Simplemente,
A B
no puedo seguir sin tí
B
Simplemente,
A B
No debo seguir sin tí
B
Simplemente,
G F# G-F# -B B
No sé qué es eso que me quita el sueño y no me deja dormir.


E----------------------------------------------------------
B----------------------------------------------------------
G-----77----77----77----7----------------------------------
D--99----99----99----99---9----55----5---------------------
A---------------------------77----77---7-------------------
E----------------------------------------------------------

E----------------------------------------------------------]
B----------------------------------------------------------]
G----------77----7---------------------77----77------------] (x4)
D-------99----99---9------77----7---99----99---------------]
A----------------------55----55----------------------------]
E----------------------------------------------------------]

E-------------------------]
B-------------------------]
G-----77----77----7-------]
D--99----99----99---------]
A-------------------------]
E-------------------------]

B
Si tú me dices que ya no me quieres
E B
No por eso voy a llorar,
E B
No por eso me vo´a matar,

B
Si tú me dices que ya no eres mia
E B
No por eso voy a sufrir,
E B
No por eso me vo´a morir.

...ESTA CANCION, ES PARA TÍ: ARI...

ALGO DE LO MÁS NUEVO DEL HARAGAN, COMO SIEMPRE RIFANDO CHIDO LA NETA
Y PS ESPERO QUE LES GUSTE BANDA,ES UNA DE MIS PREFERIDAS.
UN SALUDO PARA MI CARNALITO EL COZHO Y MI CARNALITA AIDE QUE SON
BIEN ROCKANROLEROS TBN Y LES GUSTA EL HARAGAN, YEAH...
LARGA VIDA AL ROCKANROL NACIONAL!