El Blues De Cris

El Haragán Y Compañía

Genero:

Tablatura

Bueno pues les dejo mi primer colaboracion espero les agrade!...
Cualquier duda o si quieren alguna cancion en especial agregenme en Facebook
(Busquenme como "Cheezter Sykes")... Saludos!


INTRO:
6a. ------------------------3-------------------------3--
5a. -3h5---5------3h5---5-1---3h5---5-------3h5---5-1----
4a. -----3-----5------3-----------3-----5--------3-------
3a. ---------3------------------------3------------------
2a. -----------------------------------------------------
1a. -----------------------------------------------------


6a. -1h3---3------1h3---3-----
5a. -----1-----3------1----3--
4a. ---------1-----------1----
3a. --------------------------
2a. --------------------------
1a. --------------------------


6a. ------------------------3--3h5---5-----
5a. -3h5---5------3h5---5-1--------3-----5-
4a. -----3-----5------3----------------3---
3a. ---------3-----------------------------
2a. ---------------------------------------
1a. ---------------------------------------


6a. -1h3---3-----------------------------3---1-
5a. -----1-----3--3h5---5------3h5---5-1-----3-
4a. ---------1--------3-----5------3-----------
3a. ----------------------3--------------------
2a. -------------------------------------------
1a. -------------------------------------------


Gm Cm Gm
He estado al filo de un abismo y he estado odiandome a mi mismo
Dm7 Cm Gm F5
Y tu nunca me has amado si te he necesitado


Gm
Esta noche esconderemos al diablo
Cm Gm
Que llevamos dentro tu y yo el mundo es tan pequeño
Dm7 Cm Gm F5
Y tu nunca me has llamado si te he necesitado


F5 - G5 F5 - G5 F5 - G5
Amame hoy, no me ames para mañana
F5 - G5 F5 - G5
Amame hoy que se me pudren las ganas
Cm Gm Dm7 Cm Gm F5
Y mañana al despertar sereeeeee lo que tu quieras mama



SOLO PIANO: Gm - Cm - Gm - Dm7 - Cm - Gm - F5(2 veces)


Gm Cm Gm
He estado parado aqui en la esquina esperando a que llege Cristina
Dm7 Cm Gm F5
Y tu nunca me has amado si te he necesitado

Gm
Cierra la puerta no lo dejes entrar,
Cm Gm
La oscuridad no tiene voces, no son ciertas las perdi
Dm7 Cm Gm F5
Los niños lloran en la noche lagrimas de marfil



F5 - G5 F5 - G5 F5 - G5
Amame hoy, no me ames para mañana
F5 - G5 F5 - G5
Amame hoy que se me pudren las ganas
Cm Gm Dm7 Cm Gm F5
Y mañana al despertar sereeeeee lo que tu quieras mama


SOLO GUITARRA: Gm - Cm - Gm - Dm7 - Cm - Gm - F5(2 veces)
*Al final de la 2da vuelta dar F5 y acabar en Gm