Duerme Mi Reina

El Haragán Y Compañía

Genero:

Tablatura

Fabián Hernández Pedroza
zednan12@yahoo.com.mx


Al final están las notas por si no conocen unas


Inicio
|---------------|
|---------------|
|---------------|
|---------------|
|--2--2------2--|
|-------0--0----|

C#m A
Duerme mi reina

C#m A
te voy a dejar dormir.

C#m A
sueña muñeca

C#m A
te quiero dejar dormir



C#m A
Cuando pase la guerra

C#m A
y todos se hallan ido

C#m A
después de la violación

C#m A
de los derechos humanos.



Bm
Duérmete ahora mismo

C#m Bm
porque después no te dejaré dormir

C#m
Porque después

A+7 A
me voy a odiar a mi mismo

A+7 A
me voy a odiar a mi mismo



C#m A
Tu sabes que la ley

C#m A
es como una prostituta

C#m A
que todos usan violar

C#m A
que todo eso se me olvidan.



Bm
Hagámoslo ahora mismo

C#m Bm
porque después yo ya no voy a querer

C#m
se acabará

A+7 A
el poco amor que me queda.

A+7 A
el poco amor que me queda.


Bm
Hagámoslo ahora mismo

C#m Bm
porque después yo ya no voy a querer

C#m
se acabará

A+7 A
el poco amor que me queda.

A+7 A
el poco amor que me queda.




Aquí están las notas por si no conocen alguna

A
E |---|---|---|---|-x-|---|---|---|---
A |---|---|---|---|-x-|---|-3-|---|---
D |---|---|---|---|-x-|---|-4-|---|---
G |---|---|---|---|-x-|-2-|---|---|---
B |---|---|---|---|-x-|---|---|---|---
e |---|---|---|---|-x-|---|---|---|---

A+7
E |---|---|---|---|---|---|---|---|---
A |---|---|---|---|---|---|---|---|---
D |---|-x-|---|---|---|---|---|---|---
G |---|-x-|---|---|---|---|---|---|---
B |---|-x-|---|---|---|---|---|---|---
e |---|-x-|---|-4-|---|---|---|---|---

Bm
E |---|-x-|---|---|---|---|---|---|---
A |---|-x-|---|---|---|---|---|---|---
D |---|-x-|---|-3-|---|---|---|---|---
G |---|-x-|---|-4-|---|---|---|---|---
B |---|-x-|-2-|---|---|---|---|---|---
e |---|-x-|---|---|---|---|---|---|---

C#m
E |---|---|---|-x-|---|---|---|---|---
A |---|---|---|-x-|---|---|---|---|---
D |---|---|---|-x-|---|-3-|---|---|---
G |---|---|---|-x-|---|-4-|---|---|---
B |---|---|---|-x-|-2-|---|---|---|---
e |---|---|---|-x-|---|---|---|---|---