A Esa Gran Velocidad

El Haragán Y Compañía

Genero: Pop

Tablatura

[INTRO]
GUITARRA CLEAN

Bm
e]------------------2-------------------]
B]----------------3----3----------------]
G]-------------4---------4--------------]
D]-----------4--------------4-----------]
A]-------2~~~---------------------------]
E]-----2--------------------------------]


A
e]---------------5----------------------]
B]-----------2h3---3--2~~3--2~~3--2~~3--]
G]---------2----------------------------]
D]-------2------------------------------]
A]-----0--------------------------------]
E]--------------------------------------]


Bm A Bm A
Voy a intentar una tonada, que se parezca a pink floyd
Bm A Bm A
Una dulce carcajada, ahogada en humo y alcohol.
D E A Bm
Lo que pasa es que, es solo un mal rockanrolero

el es solo, un mal rockanrolero
D C#m7 Bm7 D E
con las palabras amontonadas, ebrias, locas.


D C#m7 Bm A D C#m7 Bm A
El no respira, fuma. El no come, bebe.
D C#m7 Bm E
El no vive, muere.


[CORO]


A E F#m D C#m7 Bm7 E
A esa gran velocidad un impacto sería fatal
A E F#m D C#m7 Bm7 E
A esa gran velocidad un impacto seria fatal

[PUENTE]

A G#m F#m E D C#m7 Bm E
Morir así seria inusual, en un joven no es normal
A G#m F#m E D C#m7 Bm7 E
mi vida esta en mis manos y un descuido seria mortal
A G#m F#m E D C#m7 Bm7 E
Veo un camino en mi vida, no se a donde va,
D C#m7 Bm A Bm A
no se a donde va.


[SOLO GUITARRA DISTOR 1 ]


Bm A Bm A
Voy a acabar esta tonada, que es la canción de un perdedor
Bm A Bm A
Esta dulce carcajada, y cantar el ultimo rock
D E A Bm
Lo que pasa es que, es solo un mal rockanrolero

el es solo, un mal rockanrolero
D C#m7 Bm7 D E
con las palabras amontonadas, ebrias, locas.


[CON EL SOLO 2 GUITARRA DISTOR DE FONDO]

[CORO]
A E F#m D C#m7 Bm7 E
A esa gran velocidad un impacto sería fatal
A E F#m D C#m7 Bm7 E
A esa gran velocidad un impacto seria fatal
A E F#m D C#m7 Bm7 E
A esa gran velocidad un impacto sería fatal

SAX

FIN

HECHO POR HENRY MONTERO DE ESCARCEGA CAMPECHE