Lástima De Ti

El Gordo

Genero:

Tablatura

La progresión de acordes se repite en toda la canción...
Usen inversiones con cejilla.


D F#m
No tengo plan para el día de hoy
Bm
No voy a conectar con nada
Em A
Y sólo me voy a sentar,
D F#m
Primero yo voy a guardar una foto de alguien
Bm Em
que es muy especial en una cajita
A
Y en un par de años la voy a a mirar

D F#m Bm Em A
Uhhh lástima de ti… Uhhh lástima de ti y de los dos
D F#m Bm Em
Alguna vez la luz del día venía detrás de mí
A
Y sólo me hizo recordar


D F#m Bm Em A
Uhhh lástima de ti… Uhhh lástima de ti y de los dos
D F#m Bm Em A
Uhhh lástima de ti… Uhhh lástima…


D F#m Bm Em A
INSTRUMENTAL

E-------------------------------------------------------------
B-------------------------------------------------------------
G-11-12-11-----------------11-12-11---------------------------
D----------11-----------------------11------------------------
A-------------12-10-9------------------12-10-9----------------
E-------------------------------------------------------------

E-------------------------------------------------------------
B-------------------------------------------------------------
G-----------------------9-12-11-9-----------------------------
D-------9-11-12-11-9--9---------------------------------------
A-10-12-------------------------------------------------------
E-------------------------------------------------------------


D F#m Bm Em A
Uhhh lástima de ti… Uhhh lástima de ti y de los dos
D F#m Bm Em A
Uhhh lástima de ti… Uhhh lástima…
D#...