Desde El Día En Que Te Ví

E.g.o.

Genero:

Tablatura

Que onda gente!!..les dejo otra buenisima cancion de EGO,
es facil de entender y los requintos de la primera son faciles,
solo guiense de los acordes bien..espero les suene bien..


Dedicada a Mila =)!!


Acordes:

D5 F#m Bm


[tab]e||---|---|--- |---|-o-|---|--- |---|-o-|---|---
B||---|---|-o- |---|-o-|---|--- |---|---|-o-|---
G||---|-o-|--- |---|-o-|---|--- |---|---|---|-o-
D||---|---|--- |---|---|---|-o- |---|---|---|-o-
A||---|---|--- |---|---|---|-o- |---|-o-|---|---
E|x |---|-o-|---|--- |---|-o-|---|---[/tab]

A G

[tab]e||---|---|--- |---|---|-o-
B||---|-o-|--- |---|---|-o-
G||---|-o-|--- |---|---|---
D||---|-o-|--- |---|---|---
A||---|---|--- |---|-o-|---
E|x |---|---|-o-[/tab]


<==========================SOLO=====================>
D5/G D5/F# F#m/D

[tab]e||---|---|--- |---|---|--- |---|-o-|---|---|---
B||---|---|-o- |---|---|-o- |---|-o-|---|---|---
G||---|-o-|--- |---|-o-|--- |---|-o-|---|---|---
D||---|---|--- |---|---|--- |---|---|---|-o-|---
A|x---|---|--- x---|---|--- |---|---|---|---|-o-
E||---|---|-o- |---|-o-|--- |---|-o-|---|---|---[/tab]


D5 F#m G
desde el dia en que te vi
D5 F#m G
todo el tiempo pienso en ti
D5 F#m G
sin decirle a nadie lo que siento yo lo se
D5 F#m G
desde el dia en que te vi


[tab] D5 F#m G
e||---------------10--------------------
B||--2/7-7-7-7/8------8-7(x5)-2(x3)-0-2-
G||-------------------------------------
D||---------------12--------------------
A||--4/9-9-9-9/10----10-9(x5)-4(x3)-2-4-
E||-------------------------------------[/tab]


D5 F#m G
cierro los ojos
D5 F#m G
esta noche voy a soñar
D5 F#m
y te vi parada ahi
G
y no supe que decir
D5 F#m G
todo el tiempo pienso en ti


CORO

Bm G Bm G Bm
y no puedo creer lo que hiciste en mi
G A G D5 G Bm
ahora no puedo imaginarme sin ti
A D5 G Bm A
dejaria todo aqui por ti por ti
G A G
desde el dia en el que..te vi


D5 F#m G D5
susurro tu nombre en el intento
F#m G D5 F#m
de seguir y yo sigo tras de ti
G
ahora tengo que decir
D5 F#m G
todo el tiempo pienso en ti


CORO

Bm G Bm G Bm
y no puedo creer lo que hiciste en mi
G A G D5 G Bm
ahora no puedo imaginarme sin ti
A D5 G Bm A
dejaria todo aqui por ti por ti
G A G
desde el dia en el que..te vi


SOLO:

2:57 3:11

[tab] D5/G A D5/F# F#m/D
|==================x2==================|
e||------------------------------9-9/10-9-------
B||--5/7-7(x4)-7-5-3-5--5/7-7(x4)--------7------
G||-7------------------7------------------------
D||---------------------------------------------
A||---------------------------------------------
E||---------------------------------------------[/tab]

[tab] 3:12 3:19
G A G D5
e||---------------------------------9-9/10-9--------
B||--5/7-7(x4)-10-7-5/7-5--5/7-7(x4)--------7-5/7-7-
G||-7----------11---------7------------------7------
D||-------------------------------------------------
A||-------------------------------------------------
E||-------------------------------------------------[/tab]


D5 F#m G
desde el dia en que te vi
D5 F#m G
todo el tiempo pienso en ti
D5 G Bm A D5 G Bm A
Sin ti dejaria todo aqui por ti por ti
G A G D5
desde el dia en el que..te vi