Naomi

Eduardo Gatti

Genero: Pop

Tablatura (Ver letra)

\'Esta canción está dedicada a mis amigos del
coro...Claudia/Mauricio, Efrén ,Pili y Giogio
....gracias por todo\'
Cejillo 4ºespacio
Intro: Do*´-Do*´/Si-Do*´/La - Sol9*´ Fa7+ Do Do6

C G7 C
A)Paloma, flor del edificio
G7 C F7 F F7
del ocho de Diciembre
C G7 C
viejo ascensor, botón naranja
G7 C F7 F F7
tu y yo frente a frente
Dm A7 Dm
la luz neón sobre tu pelo
G E Am Am/SOL Re9/Fa#
tan negro como en la televisión
G C C6 C
me hizo abrazar la noche

A)Perlita azul, la vía lactea
tu vientre que palpita
cariño inmenso, tejido en sueños
desparramando el sol
de rato en rato tu me mirabas
hacia frío de nieve y de silencio
y aprendí a amar sin tiempo

C F7+/SOL C C-C/SI-Am
B)Naomi, Natasha, cual tu nombre
D9 VI-0-2-3 E
cual vas a escoger
Am G
si una sola es tu mirada
F G C
celeste azul de amanecer

C G7 C G7 C F7 F F7 C G7 C Dm A7 Dm
G E Am Am/SOL Re9/Fa# G C C6 C

A)Duerme princesa de negro entero
tan solo dieciséis
hermana, amiga, corazoncito
latiendo en la distancia
la luz neón sobre tu pelo
tan negro como en la televisión
me hizo abrazar la noche.

Final: Do*´- Fa7+ - Re9/Fa# - Sol9*´- Fa7+ - Do
C*´ C*´/SI
8º 9º 10º 7º 8º 9º
E ------|-------|-------| E ------|-------|-------|
B --1---|-------|-------| B ------|---1---|-------|
G ------|-------|-------| G ------|-------|-------|
D ------|-------|---3---| D ------|-------|---2---|
A ------|-------|-------| A ------|-------|-------|
E ------|-------|-------| E ------|-------|-------|

C*´/LA G9*´
6º 7º 8º 3º 4º 5º
E ------|-------|-------| E ------|-------|-------|
B ------|-------|---3---| B ------|-------|---3---|
G ------|-------|-------| G ------|-------|-------|
D ------|---2---|-------| D ------|-------|---2---|
A ------|-------|-------| A ------|-------|-------|
E ------|-------|-------| E ------|-------|-------|

F7 Re9/Fa#
1º 2º 3º 1º 2º 3º
E ------|-------|-------| E ------|-------|-------|
B --1---|-------|-------| B ------|-------|---3---|
G ------|---2---|-------| G ------|---2---|-------|
D ------|-------|---3---| D ------|-------|-------|
A ------|-------|-------| A ------|-------|-------|
E ------|-------|-------| E ------|---1---|-------|

C6 F7+/SOL
1º 2º 3º 1º 2º 3º
E ------|-------|-------| E ------|-------|---4---|
B ------|-------|-------| B --1---|-------|-------|
G ------|-------|-------| G ------|---2---|-------|
D ------|---2---|-------| D ------|-------|---3---|
A ------|-------|---3---| A ------|-------|-------|
E ------|-------|-------| E ------|-------|-------|