The Country Boy Song

Earl Dibbles Jr

Album: Dirt Road Driveway
Genero: Country

Tablatura (Ver letra)

[Intro]                                       [Transition to verse]

[tab]D|--------------------------------------------|------------------------------|
A|--------------------------------------------|------------------------------|
F|--------------------------------------------|------------------------------|
C|--------3h5-3~~~----------------------------|--3h5p3p0-3p0-----------------|
G|-3h5-5-5----------8\5p3---------------------|-------------5p3--------------|
C|-0---0-0----------------5p3p0---------------|------------------------------|[/tab]

(Listen to song for timing)


[Verse]

[tab]D|----------------------------------------------------------------------------|
A|----------------------------------------------------------------------------|
F|----------------------------------------------------------------------------|
C|----0--------------------3~~~~-0--------------3h5p3p0-3p0--------------5----|
G|----0-------3h5----------------0-------3h5---------------5p3-----------5----|
C|----0-----------0--------------0-----------0---------------------------5----|[/tab]

(These are just the components of the verse and there is some dead note strumming)
(Listen to the song for placement of the bar chord on the 5th fret and dead notes)
(This is the part where he says, "crack a cold one" if you don't know what a verse is)


[Chorus]

[tab]D|-------------------|--------------------------------------------------------|
A|-------------------|--------------------------------------------------------|
F|-------------------|--------------------------------------------------------|
C|---0-----3-----5---|---0---3---5------7-------------------------------------|
G|---0-----3-----5---|---0---3---5------7-------------------------------------|
C|---0-----3-----5---|---0---3---5------7-------------------------------------|
(Listen to the song for the strumming pattern and timing)
(This is the part where he starts off with, "I'm tired of these city boys running their mouth's")[/tab]


************************************

| h Hammer-on
| p Pull-off
| \ Slide down
| ~ Vibrato

************************************