Tough Luck

Eagulls

Genero: Pop Rock

Tablatura

-------------------------------------------------------------------------------
TOUGH LUCK - EAGULLS
-------------------------------------------------------------------------------
Tabbed by:
E-mail:

Tuning:EADGBE

(RIFF1)

[tab]e|---------------------------------------------------------------------------|
B|--9------------------------------------------------------------------------|
G|--9---------11---------7--------11-----------------------------------------| X3
D|--9---X8----11---X8----7---X8---11---X8------------------------------------|
A|--7---------9----------5--------9------------------------------------------|
E|---------------------------------------------------------------------------|[/tab]

(RIFF2)

[tab]e|---------------------------------------------------------------------------|
B|---------------------------------------------------------------------------|
G|---------------------------------------------------------------------------|
D|-------------0-0-0-------X2------------------------------------------------|
A|---2-2---0-0--0-0--0-0-0---------------------------------------------------|
E|--0-0-0-2-2-2-----2-2-2----------------------------------------------------|[/tab]


(RIFF3)

[tab]e|---------------------------------------------------------------------------|
B|---------------------------------------------------------------------------|
G|--9-9-9-9-9-9-9-9-11-11-11-11-11-11-11-11-14-14-14-14-14-14-14-14----------|
D|--7-7-7-7-7-7-7-7-9--9--9--9--9--9--9--9--12-12-12-12-12-12-12-12----------|
A|---------------------------------------------------------------------------|
E|---------------------------------------------------------------------------|[/tab]

[tab]e|-----------|
B|--12-14-12-|
G|--14-14-14-| X2
D|-----------|
A|-----------|
E|-----------|[/tab]

(RIFF4)

[tab]e|---------------------------------------------------------------------------|
B|---------------------------------------------------------------------------|
G|--10-10-10-10-10-11-10-\-8-8-8-8-8-9-8-/-13-13-\-6-6-6-6-6-6-6-6-----------| X4
D|--11-11-11-11-11-11-11-\-9-9-9-9-9-9-9-/-14-14-\-7-7-7-7-7-7-7-7-----------|
A|---------------------------------------------------------------------------|
E|---------------------------------------------------------------------------|[/tab]


RIFF1
RIFF2
RIFF1
RIFF3
RIFF4
RIFF1
RIFF3
RIFF4
RIFF2