This Is The Best Of My Love

Eagles

Genero:

Tablatura

Tabbed by:hey hey mf
Email:graypanther13@yahoo.com

[tab]Tuning:standard
CHORDS BELOW ARE JUST THE CHORDS AND HOW YOU PLAY THEM NOT PART OF THE SONG
Cm7? C Fm7 Fm72 Cm72 F Em7 Dm7 G
e|--0---------0--------0--------0-------0--------1------0------1-----3------
B|--0---------1--------0--------1-------0--------2------3------1-----0------
G|--0---------0--------0--------2-------0--------3------0------2-----0------
D|--0---------2--------3--------3-------2--------3------2------0-----0------
A|--3---------3--------x--------x-------3--------x------2------x-----2------
E|--x---------x--------x--------x-------x--------x------0------x-----3------[/tab]
G7 G6 Fm

[tab]e|-1------0-------1---------------------------------------------------------
B|-0------0-------1---------------------------------------------------------
G|-0------0-------1---------------------------------------------------------
D|-0------0-------3--------------------------------------------------------|
A|-2------2-------x---------------------------------------------------------
E|-3------3-------x---------------------------------------------------------[/tab]


Intro: Cm7, C, Cm7, C, Fm7, Fm72, Fm7, Fm72 x2

Verse:

[tab]C Fm72
Every night, I'm lyin in bed holdin you close in my dreams[/tab]
[tab]C
Thinkin about all the things that we said [/tab]
[tab] F
and comin apart at the seams[/tab]
[tab]Em7 Dm7 Em7 F
We tried to talk it over but the words come out too rough[/tab]
[tab]C Fm72 C G, G7, G6, G7
I know you were tryin to give me the best of your love[/tab]

Verse 2:

[tab]C Fm72
Beautiful faces and loud empty places look at the way that we live[/tab]
[tab]C F
Wastin our time on cheap talk and wine left us so little to give[/tab]
[tab] Em7 Dm7
That same old crowd was like a cold dark cloud[/tab]
[tab] Em7 F
That we could never rise above[/tab]
[tab]C Fm72 C
But here in my heart I give you the best of my love[/tab]

Chorus:
[tab]G C F
Whoa sweet darlin you get the best of my love, you get the best of my love[/tab]
[tab]G C F
Whoa sweet darlin you get the best of my love, you get the best of my love[/tab]

Bridge:
[tab]Fm Cm72
Oo, I'm going back in time an its a sweet dream[/tab]
[tab]Fm
It was a quiet night and I would be alright [/tab]
[tab] Dm7 G7
if I could go on sleeping[/tab]

Verse 3:

[tab]C Fm72
But every morning I wake up and worry whats gonna happen today[/tab]
[tab]C F
You see it your way and I see it mine but we both see it slippin away[/tab]
[tab]Em7 Dm7 Em7
You know we always had each other baby, I guess that wasn't enough[/tab]
[tab] C Fm72 C G, G7, G6, G7
Oh, Oh but here in my heart I give you the best of my love[/tab]

Chorus:
[tab]C F Cm72
Whoa, sweet darlin you get the best of my love, the best of my love[/tab]
[tab] F Cm72
Sweet Darlin, you get the best of my love, the best of my love[/tab]
[tab] F
Sweet Darlin, every night and day, you get the best of my love[/tab]

you get the best of my love
[tab]Cm72 F
Oh, sweet darlin, oh you get the best of my love x2[/tab]

I mean you play the entire last chorus x2 but at the end you say
"you get the best of my love" x2 and then strum a C at the end