Fly Eagles Fly

Eagles Pep Band

Genero:

Tablatura

[tab][Verse]
A|------------------------------------------|
E|-8------------------------------7---8-----|
C|-----------7-----------7----9-------------|
G|-----9--10-------9--10-----------------10-|
Fly Eagles Fly, on the road to Victory Fight! Fight! Fight![/tab]


[tab][Verse]
A|----------------------------------------------|
E|-10-----------------------------10----10-8----|
C|---------7---9------------7--9----------------|
G|------10------------10----------------------9-|
Fight Eagles Fight, score a touchdown 1, 2, 3 One! Two! Three![/tab]


[tab][Verse]
A|------------------------------------------------|
E|-----------------------------8-----8---8--10--7-|
C|-7--9--10---7---8--9-----9----------------------|
G|------------------------------------------------|
Hit em low, hit em high, and watch our Eagles fly[/tab]


[tab][Verse]
A|---------------------------------------|
E|-8--------------------------8--8--7--8-|
C|-----------7----7--8--9----------------|
G|----9--10------------------------------|
Fly Eagles Fly, on the road to Victory E-A-G-L-E-S E A G L E S![/tab]