Wannabe In La

Eagles Of Death Metal

Genero: Pop

Tablatura

Tabbed by sixwheeledbeast
Eagles of Death Metal - Wannabe in L.A.
Tuning: Open G GGDGBD

Play loud with fuzz.
Intro isn't guitar but added what I play anyway.


PM any questions/corrections thanks, rate please.

KEY
x - mute
b - bend
r - release
~ - vibrato
qb - quick bend
pb - pre-bend

----------------------------------------------

[tab]#Intro
(Played freting lightly to make muted note)
d|-----18-----18-18-18-----|
B|---18-----18--------18---|:
G|-18-----18------------18-|
D|-------------------------|
G|-------------------------|:
G|-------------------------|x2[/tab]

[tab]d|-----18-----18------18-18-18-----|
B|---18-----18------18--------18---|:
G|-18-----18------18------------18-|
D|---------------------------------|
G|---------------------------------|:
G|---------------------------------|x2[/tab]

[tab]d|-----18-----18------18-------|
B|---18-----18------18---------|
G|-18-----18------18-----18-18-|
D|-----------------------------|
G|-----------------------------|
G|-----------------------------|[/tab]

----------------------------------------------

[tab]#Main Riff
d|-------------------------------|
B|-------------------------------|:
G|-------------------------------|
D|-3-3h5/8-6-6h8/10-10-8-10-10-8-|
G|-3-3-3/6-6-6-6/8--8--8-8--8--8-|:
G|-3-3-3/6-6-6-6/8--8--8-8--8--8-|[/tab]

[tab]#Main Riff Variation
d|-------------------------------|
B|-------------------------------|:
G|-----------------------11-11---|
D|-3-3h5/8-6-6h8/10-10-8-8--8--8-|
G|-3-3-3/6-6-6-6/8--8--8-8--8--8-|:
G|-3-3-3/6-6-6-6/8--8--8-8--8--8-|[/tab]

[tab]#Main Riff Turnaround
d|-----------------------------|
B|-----------------------------|:
G|-----------------------------|
D|-3-3-6-6-8-8-7-6-6-6h8-6h9-6-|
G|-3-3-6-6-8-8-7-6-6-6-6-6-6-6-|:
G|-3-3-6-6-8-8-7-6-6-6-6-6-6-6-|[/tab]

[tab]#Solo
d|-------------------------|
B|-------------------------|
G|---15--15-13-------------|
D|/15----------15~~15~~15--|
G|-------------------------|
G|-------------------------|[/tab]

[tab]d|------------------------------------|
B|------------------------------------|
G|--------------13--------------------|
D|--------13-15----13b-13b-11-13b-11/-|
G|--13-15-----------------------------|
G|------------------------------------|[/tab]

[tab]d|--------------------15------------------|
B|-14b-14b-14b-14b-14b---14--14-----------|
G|------------------------------15--13h15-|
D|----------------------------------------|
G|----------------------------------------|
G|----------------------------------------|[/tab]

[tab]d|-------------18b----------------------|
B|----------------18----18\4-4h6p4------|
G|-18-18-18-18-------18------------6-3~-|
D|--------------------------------------|
G|--------------------------------------|
G|--------------------------------------|[/tab]

[tab]#Rhythm Riff (Actually played on a Bass)
d|---------------------|
B|---------------------|:
G|---------------------|
D|-8-8-8-8\6-----------|
G|-----------8-8-8-8\6-|:
G|---------------------|[/tab]

[tab]#Ending Riff
d|--------------------------|
B|--------------------------|:
G|--------------------------|
D|-3-3h5-3h6-3-6-6h8-6h9-6\-|
G|-3-3-------3/6-6-------6\-|:
G|-3-3-------3/6-6-------6\-|x2[/tab]

[tab]d|--------------| |---|
B|--------------|: |---|
G|--------------| |---|
D|-6-6h8p6h9h6--| |-3-|
G|-6-6----------|: |-3-|
G|-6-6----------|x3|-3-|[/tab]