Secret Plans

Eagles Of Death Metal

Genero: Pop

Tablatura

-------------------------------------------------------------------------------
Secret Plans - Eagles Of Deathmetal
-------------------------------------------------------------------------------
Tabbed by: Termixx
Email: Kevin.Erl@gmx.de

Tuning: Normal Tuning E A D G B E

Very easy Rock n Roll Riff. The rhythm is important !

Intro/Verse:

[tab]e|---------------------------------------------------------------------------|
B|---------------------------------------------------------------------------|
G|---------------------------------------------------------------------------|
D|---------------------------------------------------------------------------|
A|---8-8--10--8--10--8--10--8--10-----10--10--11--10--11---------------------|
E|---6-6--6---6--6---6--6---6--6------8---8---8---8---8----------------------|[/tab]

[tab]e|---------------------------------------------------------------------------|
B|---------------------------------------------------------------------------|
G|---------------------------------------------------------------------------|
D|---------------------------------------------------------------------------|
A|---11--11--13--11--11--13--------------------------------------------------|
E|---9---9---9---9---9---9---------------------------------------------------|[/tab]

Repeat...all time long...

Refrain:

[tab]e|---------------------------------------------------------------------------|
B|---------------------------------------------------------------------------|
G|--3-3---5/6\5--6-6--8/10\8---1-3--1-3--1-3--1-3--1-------------------------|
D|--3-3---5/6\5--6-6--8/10\8---1-3--1-3--1-3--1-3--1-------------------------|
A|---------------------------------------------------------------------------|
E|---------------------------------------------------------------------------|[/tab]

Intro/Verse: 8x

Refrain: 2x

Intro/Verse: 8x

Refrain: 2x + a little bit different ending...just listen to it


| / slide up
| \ slide down
| h hammer-on
| p pull-off
| ~ vibrato
| + harmonic
| x Mute note
===============================================================================