Save A Prayer

Eagles Of Death Metal

Album: Zipper Down
Genero: Rock

Tablatura (Ver letra)

I tried to capture the way EODM played the song live at Lollapalooza 2016
(https://youtu.be/DpESaZNGImo?t=27m39s)
This version differes from album version in which some parts are not played, but they are mostly identical

The tuning for the song is Open G(DGDGBD) as for almost all EODM songs
You can see that many parts are just the same notes but in defferent positions on the fretboard
It's not necessary to play it the way I tabbed it so feel free to use the most comfortable positions for you

[INTRO]

[tab]Guitar 1
D|-----------7--10--7--10--7------------7--10--7--10--7----------------------|
B|---------------------------------------------------------------------------|
G|-7--9--10-------------------7--9--10---------------------------------------|
D|---------------------------------------------------------------------------|
G|---------------------------------------------------------------------------|
D|---------------------------------------------------------------------------|[/tab]


[Bridge 1]

[tab]Guitar 1
D|--------------------------------------------------------------------------------------------------|
B|--------------1-----1-----------------1-----1-----------------1-----1-----------------1-----1-----|
G|-----------2-----2-----2-----------2-----2-----2-----------2-----2-----2-----------2-----2-----2--|
D|--0--2--3-----------------0--2--3-----------------0--2--3-----------------0--2--3-----------------|x2
G|--------------------------------------------------------------------------------------------------|
D|--------------------------------------------------------------------------------------------------|[/tab]

[tab]Guitar 2
D|--------------------------------------------------------------------------------------------------|
B|--------------------------10-8-10~----------------10-8-10~----------------10-8--------------------|
G|--7~---------------------------------------------------------------------------7~-----------------|
D|--------------------------------------------------------------------------------------------------|x2
G|--------------------------------------------------------------------------------------------------|
D|--------------------------------------------------------------------------------------------------|[/tab]


[Chorus 1]

No guitars are played during this chorus


[Verse 1]

Guitar 1 playes nothing or the same as guitar 2

[tab]Guitar 2
D|---------------------------------------------------------------------------|
B|---4\----------7\----------12\----------11\--------------------------------|
G|---4\----------7\----------12\----------11\--------------------------------|
D|---4\----------7\----------12\----------11\--------------------------------|
G|---4\----------7\----------12\----------11\--------------------------------|
D|---------------------------------------------------------------------------|[/tab]

[tab]D|---------------------------------------------------------------------------|
B|-4-4\---------7-7\--------12-12\-------11-11\------------------------------|
G|-4-4\---------7-7\--------12-12\-------11-11\------------------------------|
D|-4-4\---------7-7\--------12-12\-------11-11\------------------------------|
G|-4-4\---------7-7\--------12-12\-------11-11\------------------------------|
D|---------------------------------------------------------------------------|[/tab]


[Bridge 2]

[tab]Guitar 1
D|--------7-10-7-10-7--------7-10-7-10-7--------7-10-7-10-7--------7-10-7-10-7-|
B|-----------------------------------------------------------------------------|
G|-7-9-10-------------7-9-10-------------7-9-10-------------7-9-10-------------|
D|-----------------------------------------------------------------------------|x2
G|-----------------------------------------------------------------------------|
D|-----------------------------------------------------------------------------|[/tab]

[tab]Guitar 2
D|-----------------------------------------------------------------------------|
B|--------------------10-8-10~-----------10-8-10~-----------10-8---------------|
G|-7~-------------------------------------------------------------7~-----------|
D|-----------------------------------------------------------------------------|
G|-----------------------------------------------------------------------------|
D|-----------------------------------------------------------------------------|
Guitar 2 starts playes after guitar 1 repeates upper piece the 2nd time[/tab]


[Chorus 2]

[tab]Both guitar 1 and 2
D|---------------------------------------------------------------------------|
B|-----------------13------13----------------------13------13----------------|
G|-------------14------14------14--------------14------14------14------------|
D|-12--14--15----------------------12--14--15--------------------------------|x8
G|---------------------------------------------------------------------------|
D|---------------------------------------------------------------------------|[/tab]


[Verse 2]

[tab]Guitar 1
D|---------------------------------------------------------------------------|
B|---------------------------------------------------------------------------|
G|------------------------------7-4---7-4----6-3-----------------------------|
D|---4-0---4-0----7-4---7-4---5------------4-------2/4-----------------------|
G|-4------------7------------------------------------------------------------|x2
D|---------------------------------------------------------------------------|[/tab]
[tab]Guitar 2
D|---------------------------------------------------------------------------|
B|---4\----------7\----------12\----------11\--------------------------------|
G|---4\----------7\----------12\----------11\--------------------------------|
D|---4\----------7\----------12\----------11\--------------------------------|x2
G|---4\----------7\----------12\----------11\--------------------------------|
D|---------------------------------------------------------------------------|[/tab]


[Bridge 3]

[tab]Guitar 1
D|---------------------------------------------------------------------------|
B|---------------------------------------------------------------------------|
G|------------------------------7-4---7-4----6-3-----------------------------|
D|---4-0---4-0----7-4---7-4---5------------4-------2/4-----------------------|
G|-4------------7------------------------------------------------------------|
D|---------------------------------------------------------------------------|[/tab]

[tab]Guitar 2
D|---------------------------------------------------------------------------|
B|---------8br10-7---------8br10-7-------------------------------------------|
G|-7~--------------7~--------------7~----9\6~---/7---------------------------|
D|---------------------------------------------------------------------------|
G|---------------------------------------------------------------------------|
D|---------------------------------------------------------------------------|[/tab]


[tab]Guitar 1
D|---------------------------------------------------------------------------|
B|---------------------------------------------------------------------------|
G|------------------------------7-4---7-4----6-3-----------------------------|
D|---4-0---4-0----7-4---7-4---5------------4-------2/4-----------------------|
G|-4------------7------------------------------------------------------------|
D|---------------------------------------------------------------------------|[/tab]

[tab]Guitar 2
D|--------------------------------------/14-11~----12~-----------------------|
B|---------8br10-7---------8br10-7-------------------------------------------|
G|-7~--------------7~--------------7~----------------------------------------|
D|---------------------------------------------------------------------------|
G|---------------------------------------------------------------------------|
D|---------------------------------------------------------------------------|[/tab]


[tab]Guitar 1
D|---------------------------------------------------------------------------|
B|-----------------13------13----------------------13------13----------------|
G|-------------14------14------14--------------14------14------14------------|
D|-12--14--15----------------------12--14--15--------------------------------|x2
G|---------------------------------------------------------------------------|
D|---------------------------------------------------------------------------|[/tab]

[tab]Guitar 2
D|-N12-----------------------------------------------------------------------|
B|---------------------------------------------------------------------------|
G|---------------------------------------------------------------------------|
D|---------------------------------------------------------------------------|
G|---------------------------------------------------------------------------|
D|---------------------------------------------------------------------------|
while guitar 1 playes upper part once[/tab]

[tab]Guitar 2
D|---------------------------------------------------------------------------|
B|--------------------10-8-10~-----------10-8-10~-----------10-8-------------|
G|-7~-------------------------------------------------------------7~---------|
D|---------------------------------------------------------------------------|
G|---------------------------------------------------------------------------|
D|---------------------------------------------------------------------------|
while guitar 1 playes upper part the second time[/tab]


[Chorus 3]

[tab]Both guitar 1 and 2
D|---------------------------------------------------------------------------|
B|-----------------13------13----------------------13------13----------------|
G|-------------14------14------14--------------14------14------14------------|
D|-12--14--15----------------------12--14--15--------------------------------|x8
G|---------------------------------------------------------------------------|
D|---------------------------------------------------------------------------|[/tab]


[Verse 3]

[tab]Guitar 1
D|---------------------------------------------------------------------------|
B|---------------------------------------------------------------------------|
G|------------------------------7-4---7-4----6-3-----------------------------|
D|---4-0---4-0----7-4---7-4---5------------4-------2/4-----------------------|
G|-4------------7------------------------------------------------------------|x2
D|---------------------------------------------------------------------------|[/tab]

[tab]Guitar 2
D|---------------------------------------------------------------------------|
B|---4\----------7\----------12\----------11\--------------------------------|
G|---4\----------7\----------12\----------11\--------------------------------|
D|---4\----------7\----------12\----------11\--------------------------------|x2
G|---4\----------7\----------12\----------11\--------------------------------|
D|---------------------------------------------------------------------------|[/tab]

[Outro]

[tab]Guitar 1
D|---------------------------------------------------------------------------|
B|-----------------13------13----------------------13------13----------------|
G|-------------14------14------14--------------14------14------14------------|
D|-12--14--15----------------------12--14--15--------------------------------|x10
G|---------------------------------------------------------------------------|
D|---------------------------------------------------------------------------|
guitar 1 playes this part till the end[/tab]

[tab]Guitar 2
D|---------------------------------------------------------------------------|
B|--------------------10-8-10~-----------10-8-10~-----------10-8-------------|
G|-7~-------------------------------------------------------------7~---------|
D|---------------------------------------------------------------------------|
G|---------------------------------------------------------------------------|
D|---------------------------------------------------------------------------|[/tab]

[tab]D|---------------------------------------------------------------------------|
B|--------------------10-8-10~-------------/15~-------------10-8-10~---------|
G|-7~------------------------------------------------------------------------|
D|---------------------------------------------------------------------------|
G|---------------------------------------------------------------------------|
D|---------------------------------------------------------------------------|[/tab]

[tab]D|---------------------------------------------------------------------------|
B|-10-8---------------10-8-10~-------------/15~-------------10-8-10~---------|
G|------7~-------------------------------------------------------------------|
D|---------------------------------------------------------------------------|
G|---------------------------------------------------------------------------|
D|---------------------------------------------------------------------------|[/tab]

[tab]D|---------------------------------------------------------------------------|
B|-10-8---------------10-8-10~-------------/15~----15br17-15-15br17-15-------|
G|------7~-------------------------------------------------------------------|
D|---------------------------------------------------------------------------|
G|---------------------------------------------------------------------------|
D|---------------------------------------------------------------------------|[/tab]

[tab]D|---------------------------------------------------------------------------|
B|-15--15-15--15--15br17-15-15br17-15--15--15-15--15--15br17-15-15br17--15\--|
G|---------------------------------------------------------------------------|
D|---------------------------------------------------------------------------|
G|---------------------------------------------------------------------------|
D|---------------------------------------------------------------------------|[/tab]

************************************
| b Bend
| br Bend release
| / Slide up
| \ Slide down
| ~ Vibrato
| N Tremolo

************************************