San Berdoo Sunburn

Eagles Of Death Metal

Genero: Pop

Tablatura

-------------------------------------------------------------------------------
San Berdoo Sunburn - Eagles of Death Metal
-------------------------------------------------------------------------------
Tabbed by: GruelingJSR
Email: GruelingJSR@hotmail.com

Tuning: standard

Try bouncing the chords to make it sound better

[tab]Main Riff
e|---------------------------------------------------------------------------|
B|---------------------------------------------------------------------------|
G|--2--22------------------------7--77----------------------9--999999--------|
D|--2--22--2-----5---4---2-------7--77--7----10---9---7-----9--999999--------|
A|--0--00----0-0---0---0---0-----5--55----5-5---5---5---5---7--777777--------|
E|---------------------------------------------------------------------------|[/tab]

[tab]e|---------------------------------------------------------------------------|
B|---------------------------------------------------------------------------|
G|--5--555555--2--22---------------------------------------------------------|
D|--5--555555--2--22--2-----5---4---2----------------------------------------|
A|--3--333333--0--00----0-0---0---0---0--------------------------------------|
E|---------------------------------------------------------------------------|[/tab]
[tab]Chorus
e|---------------------------------------------------------------------------|
B|---------------------------------------------------------------------------|
G|--7-7-7-7-7-7-7-7--2--22-------5--2--4--2--7-7-7-7-7-7-7-7--9-9-9-9-5-5-5-5|
D|--7-7-7-7-7-7-7-7--2--22-2--5--------------7-7-7-7-7-7-7-7--9-9-9-9-5-5-5-5|
A|--5-5-5-5-5-5-5-5--0--00--0--0-------------5-5-5-5-5-5-5-5--7-7-7-7-3-3-3-3|
E|---------------------------------------------------------------------------|[/tab]

Listen to the song for timing


| / slide up
| \ slide down
| h hammer-on
| p pull-off
| ~ vibrato
| + harmonic
| x Mute note
===============================================================================