Kiss The Devil

Eagles Of Death Metal

Album: Peace, Love, Death Metal
Genero: Pop

Tablatura (Ver letra)

-------------------------------------------------------------------------------
Kiss the Devil - Eagles of Death Metal
-------------------------------------------------------------------------------
Tabbed by:GruelingJSR
Email:GruelingJSR@hotmail.com

Tuning:EODM Open G (DGDGBd)

Hope you like it!

[tab]The main riff that is played throughout the song
d|---------------------------------------------------------------------------|
B|---------------------------------------------------------------------------|
G|------33-------------------------------------------------------------------|
D|--5-53---5-5p3------------3------------------------------------------------|
G|--------------5---3-3-5-7---5-3--------------------------------------------|
D|---------------5---5-----------5-------------------------------------------|[/tab]
[tab]Variation
d|---------------------------------------------------------------------------|
B|------------------3--------------------------------------------------------|
G|------33----------5b-5p3-5p3-3---------------------------------------------|
D|--5-53---5-5p3--------------5-5--------------------------------------------|
G|--------------5------------------------------------------------------------|
D|---------------5-----------------------------------------------------------|[/tab]


| / slide up
| \ slide down
| h hammer-on
| p pull-off
| ~ vibrato
| + harmonic
| x Mute note
===============================================================================