I Only Want You

Eagles Of Death Metal

Genero: Pop

Tablatura

Tuning: Regular EODM, GGDGBd
(They play it with a capo on the 2nd fret, but i'm gonna tab it without the capo.)

[tab]D|-------------------------------------------------------------------------|
B|-------------------------------------------------------------------------|
G|-------------------------------------------------------------------------|
D|-/-2-2-4-2-5-4-2-/-5-5-7-5-8-5-7-5-\-2-2-4-2-5-2-4-2-/-5-5-7-5-8-5-7-5-\-|
G|-/-2-2-2-2-2-2-2-/-5-5-5-5-5-5-5-5-\-2-2-2-2-2-2-2-2-/-5-5-5-5-5-5-5-5-\-|
G|-/-2-2-2-2-2-2-2-/-5-5-5-5-5-5-5-5-\-2-2-2-2-2-2-2-2-/-5-5-5-5-5-5-5-5-\-|[/tab]

It's pretty much that the whole time. Except for during the chorus...

[tab]D|-------------------------------------------------------------------------|
B|-------------------------------------------------------------------------|
G|-------------------------------------------------------------------------|
D|---2-2-2-2-2-2-2-/-5-5-5-5-5-5-5-5-\-2-2-2-2-2-2-2-2-/-5-5-5-5-5-5-5-\---|
G|---2-2-2-2-2-2-2-/-5-5-5-5-5-5-5-5-\-2-2-2-2-2-2-2-2-/-5-5-5-5-5-5-5-\---|
G|---2-2-2-2-2-2-2-/-5-5-5-5-5-5-5-5-\-2-2-2-2-2-2-2-2-/-5-5-5-5-5-5-5-\---|[/tab]

And Dave does this really easy walk down with a capo, but no capo here!!!

[tab]D|-------------------------------------------------------------------------|
B|-------------------------------------------------------------------------|
G|-------------------------------------------------------------------------|
D|---2-2-2-2-2-2-2-/-5-5-5-5-5-5-5---------2-2-2-2-2-2-2-/-5-5-5-5-5-5-5---|
G|---2-2-2-2-2-2-2-/-5-5-5-5-5-5-5---------2-2-2-2-2-2-2-/-5-5-5-5-5-5-5---|
G|---2-2-2-2-2-2-2-/-5-5-5-5-5-5-5-5-4-3-2-2-2-2-2-2-2-2-/-5-5-5-5-5-5-5---|[/tab]


************************************

| / Slide up
| \ Slide down

************************************