I Like To Move In The Night

Eagles Of Death Metal

Album: Death by Sexy
Genero: Pop Rock

Tablatura (Ver letra)

Tabbed by sixwheeledbeast
Eagles of Death Metal - I Like To Move In The Night
Tuning: Open G GGDGBD


PM any questions/corrections thanks, rate please.
UPDATED: 1 July 2011 - Solo parts now included.

KEY
x - mute
b - bend
r - release
~ - vibrato
qb - quick bend
pb - pre-bend

[tab]#Intro
d|-----------------------------------------------|
B|-----------------------------------------------|
G|---------------------3----------------3-3-0----|
D|------2----2-----3-5--------------3-5------00x-|
G|---0---3b---3b-0-------3~-33-5-5---------------|
G|-0x------0-------------------------------------|[/tab]

[tab]d|-----------------------------------------------|
B|--------------------------------------------3--|
G|-----------------3----------------------3-5----|
D|--2----2-----3-5---------------------3-5-------|
G|---3b---3b-0-------3~33-3~3-3/5~5~5------------|
G|-----0-----------------------------------------|[/tab]


[tab]#Main Riff
d|-----------------------------------------------|
B|----------------------------5-5--------7-7-----|:
G|------------------------3-3-5-5-3--5-5-7-7-5---|
D|---------2----2---------3-3-5-5-3--5-5-7-7-5---|
G|-0-0-0----3b---3b--0-0--3-3-3-3-3--5-5-5-5-5---|:
G|-0-0-0-0----0----0-0-0--3-3-3-3-3--5-5-5-5-5---|x4[/tab]

[tab]#Main Riff Ending 1
d|-----------------------------------------------------|
B|-----------------------------------------------------|
G|--------------19-------17\16-18/19-18/19-17\16-17\16-|
D|--2-----19b21---19-17~-------------------------------|
G|---3b---------------0--------------------------------|
G|0----0-----------------------------------------------|[/tab]

#Verse Riff - Bass Only

#Main Riff

[tab]#Main Riff Ending 2
d|-----------------------------------------------------|
B|-----------------------------------------------------|
G|-15--15-15-15-15-15-12--/17-19-17-17-15-12-10h12-----|
D|-15--15-15-15-15-15-12---------------------------10~-|
G|-----------------------------------------------------|
G|-----------------------------------------------------|[/tab]

#Verse Riff - Bass Only

[tab]#Alternate Main Riff
d|-----------------------------------------------|
B|-----------------------------------------------|:
G|-----------------------------------------------|
D|---------2----2---------2-3-5-7-5-3-2-3-5------|
G|-0-0-0----3b---3b--0-0--------------------5-3-5|:
G|-0-0-0-0----0----0-0-0-------------------------|x2[/tab]

[tab]d|-----------------------------------------------|
B|----------------------------5-5--------7-7-----|
G|------------------------3-3-5-5-3--5-5-7-7-5---|
D|---------2----2---------3-3-5-5-3--5-5-7-7-5---|
G|-0-0-0----3b---3b--0-0--3-3-3-3-3--5-5-5-5-5---|
G|-0-0-0-0----0----0-0-0--3-3-3-3-3--5-5-5-5-5---|[/tab]

[tab]d|-----------------------------------------------|
B|-----------------------------------------------|
G|-----------------------------------------------|
D|---------2----2---------2-3-5-7-5-3-2-3-5------|
G|-0-0-0----3b---3b--0-0--------------------5-3-5|
G|-0-0-0-0----0----0-0-0-------------------------|[/tab]

[tab]#Main Riff Ending 3
d|-------------------------------15b---15b------15-----|
B|-12-/15-15\14/15b-12-12-12-/15-17b18-17b18-15-17b18r-|
G|-12--------------------------------------------------|
D|-----------------------------------------------------|
G|-----------------------------------------------------|
G|-----------------------------------------------------|[/tab]

[tab]#Bridge (Bass only first part then...)
d|-15-14-12------------------------|
B|----------11-10-8--6-5-2b3-------|:
G|---------------------------3-2-0-|
D|---------------------------------|
G|---------------------------------|:
G|---------------------------------|x2[/tab]

[tab]#Ending Main Riff Variation
d|-----------------------------------------------|
B|----------------------------5-5--------7-7-----|:
G|------------------------3-3-5-5-3--5-5-7-7-5---|
D|---------2----2---------3-3-5-5-3--5-5-7-7-5---|
G|-0-0-0----3b---3b--0-0--3-3-3-3-3--5-5-5-5-5---|:
G|-0-0-0-0----0----0-0-0--3-3-3-3-3--5-5-5-5-5---|x2[/tab]

[tab]d|-----------------------------------------------|
B|-----------------------------------------------|:
G|-----------------------------------------------|
D|---------2----2---------2-3-5-7-5-3-2-3-5------|
G|-0-0-0----3b---3b--0-0--------------------5-3-5|:
G|-0-0-0-0----0----0-0-0-------------------------|x2[/tab]

[tab]#Solo - Fade Out
|-Guitar 1 (3:28)
d|------------------------------------------|
B|------------------------------------------|
G|-14b15-15-pb15r14-12-14qb15-15-pb15r14-12-|
D|------------------------------------------|
G|------------------------------------------|
G|------------------------------------------|[/tab]
[tab] |--Guitar 2
d|-12qb15-15r12--------12qb15-15r12~~~------|
B|------------------------------------------|
G|------------------------------------------|
D|------------------------------------------|
G|------------------------------------------|
G|------------------------------------------|[/tab]

[tab] |-Guitar 1 (3:32)
d|-------------------------------------------|
B|-------------------------------------------|
G|------12------12--------12----------14qb15-|
D|--14------14--------14--------14-----------|
G|-------------------------------------------|
G|-------------------------------------------|[/tab]
[tab] |--Guitar 2
d|-------------------------------------------|
B|-15qb17-15qb17-15qb17r15-------------------|
G|------------------------14qb15-12~--14qb15-|
D|----------------------------------14-------|
G|-------------------------------------------|
G|-------------------------------------------|[/tab]

[tab] |-Guitar 1 (3:35)
d|----------------------15-14-12--------------------|
B|------------------------------11-10-8-6-5-3-------|
G|-14qb15--14-14qb15r14~----------------------3-2-0-|
D|-------12-----------------------------------------|
G|--------------------------------------------------|
G|--------------------------------------------------|[/tab]
[tab] |--Guitar 2
d|-------12qb15---------15-14-12--------------------|
B|------------------------------11-10-8-6-5-3-------|
G|------------14qb15r14-----------------------3-2-0-|
D|--------------------------------------------------|
G|--------------------------------------------------|
G|--------------------------------------------------|[/tab]

[tab] |-Guitar 1 (3:43)
d|-----------------------------------------------|
B|-----------------------------------------------|
G|-----------------------------------------------|
D|---------2----2---------2-3-5-7-5-3-2-3-5------|
G|-0-0-0----3b---3b--0-0--------------------5-3-5|
G|-0-0-0-0----0----0-0-0-------------------------|[/tab]
[tab] |--Guitar 2
d|-----------------------------------------------|
B|-------------------------------------8-8~8-6-8~|
G|-0-0-2b3-5-3-0-5-3-0-00-5b7r5\3-3/7b9----------|
D|-----------------------------------------------|
G|-----------------------------------------------|
G|-----------------------------------------------|[/tab]

[tab] |-Guitar 1 (3:52) Fading....
d|-----------------------------------------------|
B|-----------------------------------------------|
G|-----------------------------------------------|
D|---------2----2--------2-3-5-7-5-7-8-10-8-7-5--|
G|-0-0-0----3b---3b--0-0-------------------------|
G|-0-0-0-0----0----0-0-0-------------------------|[/tab]
[tab] |--Guitar 2
d|---------------------------------------------------|
B|17b20-pb20r17-17b20~~17b20r17--------15qb17--------|
G|----------------------------14qb15-12-----14qb15-12|
D|---------------------------------------------------|
G|---------------------------------------------------|
G|---------------------------------------------------|[/tab]