English Girl

Eagles Of Death Metal

Album: Peace, Love, Death Metal
Genero: Pop

Tablatura (Ver letra)

Eagles of Death Metal - English Girl
Album: Peace Love Death Metal
Tabber: Alexander

[tab]Riff 1
Main riff & Verse
e -----------------------------------------------------------------|
B -----------------------------------------------------------------|
G -----------------------------------------------------------------|
D -----------------------------------------------------------------|
A --7-9-7-7-9-7--8--10-8-8--10-8--10-12-10-10-12-10--13-10-12-10---|
E --5-5-5-5-5-5--6--6--6-6--6-6---8--8--8--8--8--8---8--8--8--8----|[/tab]


[tab]Solo
e ----------------5-5-5-5-5-5-5------------------------|
B ---------------------------------8-8-8-8-8-----------|
G ----------5-5--------------------------------7^--5---|
D --7-7-7----------------------------------------------| X2
A -----------------------------------------------------|
E -----------------------------------------------------|[/tab]


[tab]2nd time play this
e --------------------|
B --------------------|
G --5-5-7-7-5-5-------|
D -----------------7--|
A --------------------|
E --------------------|[/tab]


Riff 2
Chorus
D#----D----C