Dont Speak

Eagles Of Death Metal

Album: Death by Sexy
Genero: Rock

Tablatura (Ver letra)

[tab][Intro]
e|------------------------------------------------------------|
B|------------------------------------------------------------| (x4)
G|------------------------------------------------------------|
D|---8-8-8-8------8-8-8-8------8-8------^----------^----------|
A|---8-8-8-8------8-8-8-8------8-8--4-6-6-4---4-6--6--6-4-----|
E|---6-6-6-6------6-6-6-6------6-6----------6------------6-4--|[/tab]

[tab]Pace em out
e|---------|
B|---------|
G|---------|
D|-8--8-8--|(x4)
A|-8--8-8--|
E|-6--6-6--|[/tab]

[tab]e|-------------------------------|
B|-------------------------------|
G|-------------------------------|
D|-8------^----------^-----------|(x4)
A|-8--4-6-6-4---4-6--6--6-4------|
E|-6-6--------6-------------6-4--| [/tab]

[tab]Pace em out...like in the song
e|---------|
B|---------|
G|---------|
D|-8--8-8--|(x4)
A|-8--8-8--|
E|-6--6-6--|[/tab]

[tab]e|-------------------------------|
B|-------------------------------|
G|-------------------------------|
D|-8------^----------^-----------|(x4)
A|-8--4-6-6-4---4-6--6--6-4------|
E|-6-6--------6-------------6-4--|[/tab]

[tab]e|---------|
B|---------|
G|---------|
D|-8--8-8--|
A|-8--8-8--|
E|-6--6-6--|[/tab]

[tab]Laughter Part HAHAHAHAHA
[Insert Solo Here]
(on top of what is below)
e|-------------------------------|
B|-------------------------------|
G|-8------^----------^-----------|(x2)
D|-8--4-6-6-4---4-6--6--6-4------|
A|-6-6--------6-------------6-4--|
E|-------------------------------|[/tab]

[tab]e|-------------------------------|
B|-------------------------------|
G|-------------------------------|
D|-8------^----------^-----------|(x2)
A|-8--4-6-6-4---4-6--6--6-4------|
E|-6-6--------6-------------6-4--|[/tab]

[tab](Listen to song for the bends and the scratches)
e|---------|
B|---------|
G|---------|
D|-8--8-8--|(x11)
A|-8--8-8--|
E|-6--6-6--|[/tab]

[tab](Play this to the end and your done)
e|-------------------------------|
B|-------------------------------|
G|-------------------------------|
D|-8------^----------^-----------|
A|-8--4-6-6-4---4-6--6--6-4------|
E|-6-6--------6-------------6-4--|[/tab]