Chase The Devil

Eagles Of Death Metal

Album: Death by Sexy
Genero: Pop Rock

Tablatura (Ver letra)

Tabbed by: sinnisa
Email: sinn.legend@gmail.com


[tab]e|--13/15--13--10------------------------------------------------------------|
B|--------------------13--11--13---------------------------------------------|
G|--------------------------------12-----------------------------------------|
D|---------------------------------------------------------------------------|
A|---------------------------------------------------------------------------|
E|---------------------------------------------------------------------------|[/tab]

[tab]e|--13/15--13--10------------------------------------------------------------|
B|--------------------13--11--13--11-----------------------------------------|
G|---------------------------------------------------------------------------|
D|---------------------------------------------------------------------------|
A|---------------------------------------------------------------------------|
E|---------------------------------------------------------------------------|[/tab]

[tab]e|--13/15--13--10----------------------------------------------13-15-13------|
B|--------------------13--11--13--11--------13/15-13/15-13/15-----------15---|
G|-----------------------------------12--------------------------------------|
D|---------------------------------------------------------------------------|
A|---------------------------------------------------------------------------|
E|---------------------------------------------------------------------------|[/tab]


| / slide up
| \ slide down
| h hammer-on
| p pull-off
| ~ vibrato
| + harmonic
| x Mute note
===============================================================================