Ballad Of Queen Bee And Baby Duck

Eagles Of Death Metal

Album: Death by Sexy
Genero: Pop Rock

Tablatura (Ver letra)

Tabbed by: Tim Jessop
Email: retardedfishmonkey@hotmail.com

Tuning: G G D G B D

[tab]Intro/Chorus I've written 2 versions of this part, both are exactly the same so
use whichever you feel more comfortable with.
e|----------------------------------------------------------------------|
B|-----------------------------or--------------0--2---------------------|
G|-------4--6-----------------------------0--2------2--2-2--------------|
D|-5--7--------7--7-7--(Bass Fill)--------------------------------------|
A|---------------------(0-0-3-3-5--5-5)---------------------------------|
E|---------------------(0-0-3-3-5--5-5)---------------------------------|[/tab]


[tab]Verse, This isn't very easy to tab as it's many just scales and random shit like that,
i'll give you a few rough ideas on what it should be like.
e|-----------------------------------------------------8-8-10--10-8-----|
B|-10--10-10--10-10-8-10--13--10-8-10-----------8-8-8-------------------|
G|----------------------------------------------------------------------|
D|----------------------------------------------------------------------|
A|----------------------------------------------------------------------|
E|----------------------------------------------------------------------|[/tab]

[tab]Chorus
Just the intro but where the bass riff is you can play this
e|---5-5-8-8-10--10-10--------------------------------------------------|
B|--(8-8)---------------------------------------------------------------|
G|----------------------------------------------------------------------|
D|----------------------------------------------------------------------|
A|----------------------------------------------------------------------|
E|----------------------------------------------------------------------|[/tab]

Not the best of tabs, but the only one here.

| / slide up
| \ slide down
| h hammer-on
| p pull-off
| ~ vibrato
| + harmonic
| x Mute note
========================================================================