Bag O Miracles

Eagles Of Death Metal

Genero: Pop

Tablatura

Title: Bag O' Miracles
Artist: Eagles of Death Metal
Album: Death By Sexy
Tabber: Duncan Usher - Iksose3@hotmail.com

[tab]Intro
e|------------------------------------------------|
B|------------------------------------5-6-5-3-----|
G|---------2-4-44-----------2-4/5-5-2-------------|
D|-0-000-3--------33-0--0-3-----------------------|
A|------------------------------------------------|
E|------------------------------------------------|[/tab]

[tab]e|------------------------------------------------|
B|------------------------------------------------|
G|--2-2-4b---------2-4--2-44----------------2-4---|
D|---------3-00-33------------33-0-00-3p0h3-------|
A|------------------------------------------------|
E|------------------------------------------------|[/tab]


[tab]e|------------------------------------------------|
B|--3-5--3h5/6--6-5-3-/5\3-0-3--------------------|
G|---------------------------2--------------------|
D|------------------------------------------------|
A|------------------------------------------------|
E|------------------------------------------------|[/tab]

I tabbed out the beggining of the broken chords, but I couldn't get the rest so I
just put the chords in.

[tab]e|---2---2-3p2---2---2--3p2---3---3-2-------------|
B|------------------------------------------------|
G|---2-2---2---2---2----2---2---2-----0-33--------|
D|-0----------------------------------------------|
A|------------------------------------------------|
E|------------------------------------------------|[/tab]

[tab]C F
Oh yes I got me some trouble lord because I changed one more Nun's name,[/tab]
[tab] G
Oh yes I feel so sad and lonesome,[/tab]
[tab] C
Words will dress me all up in shame,[/tab]
[tab]C F
Just like the good lord walk the water so long ago on the sea of gallilee,[/tab]
[tab] G C
I need a big ol' Bag O' miracles come and lift that woman right off of me.[/tab]

Amen C F G C

[tab]C F
Oh yes I got me some trouble lord because I changed one more Nun's name,[/tab]
[tab] G C
Well, I feel so sad and lonesome, words will dress me up all up in shame,[/tab]
[tab]C F
Just like the good lord Jesus walk the water so long ago on the sea of gallilee,[/tab]
[tab] G
I need me a big ol' Bag O' miracles come and lift that woman right off of me.[/tab]

[tab]Finish on:
e|----5-------------------------------------------|
B|---3--------------------------------------------|
G|--2---------------------------------------------|
D|-0----------------------------------------------|
A|------------------------------------------------|
E|------------------------------------------------|[/tab]

The lyrics are most definetly not all correct, so if you know them please tell me so I
change them, thank you very much.
Love this song so much it be my ringtone haha, Eagles of Death Metal, praise the Lord.